Song name
# A B C D E F G H I J K L M N O P Q R S T U V W X Y Z

Belphegor - The Goatchrist tab

Help us improve GuitareTab! Take a short survey!
Tuning D G C F A D (1 whole step down)

Intro (Riff 1)
Guitar 1 (tremolo picked)
|-------------------------------------------------------------------|
|-------------------------------------------------------------------|
|--------------------------------------------------9----------------|
|-----9---8--------9-10-9---------9---8----------9---10-9-----------|
|-7-9---9---9--7-9--------10--7-9---9---9ph--7-9--------------------|
|-------------------------------------------------------------------|
Guitar 2 (tremolo picked)
|-------------------------------------------------------------------|
|-------------------------------------------------------------------|
|-------------------------------------------------------------------|
|------------------------------------------------2------------------|
|-----2---1--------2-3-2--------2---1----------2---3-2--------------|
|-0-2---2---2--0-2-------3--0-2---2---2ph--0-2----------------------|
Guitars 1 and 2 (when Helmuths voice comes in)
|-------------------------------------------------------------------|
|-------------------------------------------------------------------|
|-------------------------------------------------------------------|
|----------------------------------------------2--------------------|
|-----2---1--------2-3-2--------2---1--------2---3-2----------------|
|-0-2---2---2--0-2-------3--0-2---2---2--0-2------------------------|






|-------------------------------------------------------------------|
|-------------------------------------------------------------------|
|-------------------------------------------------------------------|
|------------------------------------------------5-4----------------|
|-----2---1--------2-3-2--------2---1----------2-----2--------------|
|-0-2---2---2--0-2-------3--0-2---2---2ph--0-2----------------------|
Verse (riff 2) Guitar 1 (tremolo picked)
|-------------------------------------------------------------------|
|-------------------------------------------------------------------|
|------------------------------------------------9------------------|
|-----9---8--------9-10-9---------9---8--------9---10-9-------------|
|-7-9---9---9--7-9--------10--7-9---9---9--7-9----------------------|
|-------------------------------------------------------------------|
Guitar 2 (tremolo picked)
|-------------------------------------------------------------------|
|-------------------------------------------------------------------|
|-------------------------------------------------------------------|
|---------------------------------------------2---------------------|
|-----2---1-------2-3-2--------2---1--------2---3-2-----------------|
|-0-2---2---2--0-2------3--0-2---2---2--0-2-------------------------|
Guitar 1
|-------------------------------------------------------------------|
|-------------------------------------------------------------------|
|--------------------------------------------------12-11------------|
|-----9---8--------9-10-9---------9---8----------9-------9----------|
|-7-9---9---9--7-9--------10--7-9---9---9ph--7-9--------------------|
|-------------------------------------------------------------------|
Guitar 2
|-------------------------------------------------------------------|
|-------------------------------------------------------------------|
|-------------------------------------------------------------------|
|------------------------------------------------5-4----------------|
|-----2---1--------2-3-2--------2---1----------2-----2--------------|
|-0-2---2---2--0-2-------3--0-2---2---2ph--0-2----------------------|
Chorus play 2x (riff 3) Guitars 1 and 2
|-7-7--77--8-8-------------------------7--7--77--8-8----------------|
|-7-7--77--8-8-------------------------7--7--77--8-8----------------|
|-7-7--77--8-8-------------------------7--7--77--8-8----------------|
|-------------------------------------------------------------------|
|---------------101010101010999999--------------------333333222222--|
|-------------------------------------------------------------------|
Guitar 1
|-------------------------------------------------------------------|
|---12--------------12--------------12--------------12--------------|
|-9----12-11-12-11-----12-11-12-11-----12-11-12-11-----12-11q-11~---|
|-------------------------------------------------------------------|
|-------------------------------------------------------------------|
|-------------------------------------------------------------------|
Guitar 2 (let ring)
|-------------------------------------------------------------------|
|-------------------------------------------------------------------|
|-------------------------------------------------------------------|
|-------------------------------------------------------------------|
|-7-----------------6----------------7--------------6---------------|
|-7-----------------6----------------7--------------6---------------|
Interlude (riff 4) Guitar 1 and 2
|-------------------------------------------------------------------|
|-------------------------------------------------------------------|
|-------------------------------------------------------------------|
|(let ring)--------------------------------------------2------------|
|-7-6--3------------------------------------------------3-2--------|
|-7--6--3-(guitar 1 does a slide up the neck right here)-----3------|
Let ring
|-------------------------------------------------------------------|
|-------------------------------------------------------------------|
|-9-------11---------12-----------11~-------------------------------|
|-------------------------------------------------------------------|
|-7-------9----------10-----------9~--------------------------------|
|-------------------------------------------------------------------|
Riff 5 (play 2x) (let ring)
|-------------------------------------------------------------------|
|-------------------------------------------------------------------|
|-12------11------12-------11--------9--------11-------12q-----11---|
|-------------------------------------------------------------------|
|-10------9-------10-------9---------7--------9--------10q-----9----|
|-------------------------------------------------------------------|

|-------------------------------------------------------------------|
|-------------------------------------------------------------------|
|-12------11------12-------11--------9--------11-------16q-----17---|
|-------------------------------------------------------------------|
|-10------9-------10-------9---------7--------9--------14q-----15---|
|-------------------------------------------------------------------|
Solo (do all the tappings really fast, the solo may contain some errors)
|-19p15p14-18p15p14-15p14p12-19p15p14-18p15p14-15p14p12-------------|
|------------------------------------------------------12t8p7-12t8p7|
|-------------------------------------------------------------------|
|-------------------------------------------------------------------|
|-------------------------------------------------------------------|
|-------------------------------------------------------------------|
Rhythm over solo
|-------------------------------------------------------------------|
|-------------------------------------------------------------------|
|-------------------------------------------------------------------|
|---------------------------------------------2---------------------|
|-----2---1-------2-3-2--------2---1--------2---3-2-----------------|
|-0-2---2---2--0-2------3--0-2---2---2--0-2-------------------------|

|-------------------------------------------------------------------|
|-12t8p7-12t8p7-12t8p7-12t8p7-11t8p7-11t8p7-11t8p7-11t8p7-11t8p7----|
|-------------------------------------------------------------------|
|-------------------------------------------------------------------|
|-------------------------------------------------------------------|
|-------------------------------------------------------------------|

|-------------------------------------------------------------------|
|-------------------------------------------------------------------|
|-------------------------------------------------------------------|
|---------------------------------------------2---------------------|
|-----2---1-------2-3-2--------2---1--------2---3-2-----------------|
|-0-2---2---2--0-2------3--0-2---2---2--0-2-------------------------|

|--------19t15p14-19t15p14-19t15p14-19t15p14-19t15p14-19t15p14------|
|-11t8p7------------------------------------------------------------|
|-------------------------------------------------------------------|
|-------------------------------------------------------------------|
|-------------------------------------------------------------------|
|-------------------------------------------------------------------|

|-------------------------------------------------------------------|
|-------------------------------------------------------------------|
|-------------------------------------------------------------------|
|---------------------------------------------2---------------------|
|-----2---1-------2-3-2--------2---1--------2---3-2-----------------|
|-0-2---2---2--0-2------3--0-2---2---2--0-2-------------------------|
Not quite sure about this part
|-------------------------------------------------------------------|
|-14t12p11-14t12p11-14t12p11-14t12p11-14t12p11-14t12p11-------------|
|-------------------------------------------------------------------|
|-------------------------------------------------------21p20p18----|
|-------------------------------------------------------------------|
|-------------------------------------------------------------------|
Rhythm changes here
|-------------------------------------------------------------------|
|-------------------------------------------------------------------|
|-------------------------------------------------------------------|
|-----7---6--------7-8---------5---4--------5-6---------------------|
|-5-7---7---7--5-7-----8---3-5---5---5--3-5-----6-------------------|
|-------------------------------------------------------------------|

|-------------------------22-21p19-20-19p18-18-(use delay-effect)---|
|-------------------------------------------------------------------|
|----------16-17-16-------------------------------------------------|
|-20p18p17----------17-16-------------------------------------------|
|-------------------------------------------------------------------|
|-------------------------------------------------------------------|

|-------------------------------------------------------------------|
|-------------------------------------------------------------------|
|-------------------------------------------------------------------|
|---------------------------------------------2---------------------|
|-----2---1-------2-3-2--------2---1--------2---3-2-----------------|
|-0-2---2---2--0-2------3--0-2---2---2--0-2-------------------------|

|-19p15p14-18p15p14-15p14p12-19p15p14-18p15p14-15p14p12-------------|
|------------------------------------------------------12t8p7-12t8p7|
|-------------------------------------------------------------------|
|-------------------------------------------------------------------|
|-------------------------------------------------------------------|
|-------------------------------------------------------------------|

|-------------------------------------------------------------------|
|-------------------------------------------------------------------|
|-------------------------------------------------------------------|
|---------------------------------------------2---------------------|
|-----2---1-------2-3-2--------2---1--------2---3-2-----------------|
|-0-2---2---2--0-2------3--0-2---2---2--0-2-------------------------|

|-------------------------------------------------------------------|
|-12t8p7-12t8p7-12t8p7-12t8p7-11t8p7-11t8p7-11t8p7-11t8p7-11t8p7----|
|-------------------------------------------------------------------|
|-------------------------------------------------------------------|
|-------------------------------------------------------------------|
|-------------------------------------------------------------------|

(The tapping is probably not listed right, hopefully one of you will correct it)
|--------19t15p14-19t15p14-19t15p14-19t15p14-19t15p14-19t15p14------|
|-11t8p7------------------------------------------------------------|
|-------------------------------------------------------------------|
|-------------------------------------------------------------------|
|-------------------------------------------------------------------|
|-------------------------------------------------------------------|

|-------------------------------------------------------------------|
|-------------------------------------------------------------------|
|-------------------------------------------------------------------|
|---------------------------------------------2---------------------|
|-----2---1-------2-3-2--------2---1--------2---3-2-----------------|
|-0-2---2---2--0-2------3--0-2---2---2--0-2-------------------------|

|-21t19p18-21t19p18-21t19p18-21t19p18-21t19p18----------------------|
|-------------------------------------------------------------------|
|----------------------------------------------------------------16-|
|----------------------------------------------21p20p18-20p18p17----|
|-------------------------------------------------------------------|
|-------------------------------------------------------------------|

Rhythm changes here again
|-------------------------------------------------------------------|
|-------------------------------------------------------------------|
|-------------------------------------------------------------------|
|-----7---6--------7-8---------5---4--------5-6---------------------|
|-5-7---7---7--5-7-----8---3-5---5---5--3-5-----6-------------------|
|-------------------------------------------------------------------|

|-------------22-21p19-21-19p18-21q---------------------------------|
|-------------------------------------------------------------------|
|-17-16-------------------------------------------------------------|
|-------17-16-------------------------------------------------------|
|-------------------------------------------------------------------|
|-------------------------------------------------------------------|

|-------------------------------------------------------------------|
|-------------------------------------------------------------------|
|-------------------------------------------------------------------|
|---------------------------------------------2---------------------|
|-----2---1-------2-3-2--------2---1--------2---3-2-----------------|
|-0-2---2---2--0-2------3--0-2---2---2--0-2-------------------------|

Repeat riffs 1, 2, and 3.  The song fades out at the end of riff 3.
END
Related for The Goatchrist tab