Song name
# A B C D E F G H I J K L M N O P Q R S T U V W X Y Z

Belphegor - Stigma Diobolicum tab

                Stigma Diobolicum
                    Belphegor
            tabbed by Chris Downey (carpekd)



 |------------------------|------------------------|
 |------------------------|------------------------|
 |------------------------|------------------------|
 |---------------------5"-|---------------------6"-|
 |-----3"--5"-6"-5"-3"----|-----3"--5"-6"-5"-3"----|
 |-3"---------------------|-3"---------------------|




 |------------------------|----------------|
 |------------------------|----------------|
 |------------------------|----------------|
 |---------------------5"-|----------6"-5"-|
 |-----3"--5"-6"-5"-3"----|-----3"-5"------|
 |-3"---------------------|-3"-------------|




 |------------------------|------------------------|
 |------------------------|------------------------|
 |---------------------7"-|---------------------8"-|
 |---------7"-8"-7"-5"----|---------7"-8"-7"-5"----|
 |-----5"-----------------|-----5"-----------------|
 |-3"---------------------|-3"---------------------|



 |------------------------|-----------------|
 |------------------------|-----------------|
 |---------------------7"-|-----------8"-7"-|
 |---------7"-8"-7"-5"----|-----5"-7"-------|
 |-----5"-----------------|-----------------|
 |-3"---------------------|-3"--------------|





 |------------------------|------------------------|
 |------------------------|------------------------|
 |------------------------|------------------------|
 |---------------------5"-|---------------------6"-|
 |-----3"--5"-6"-5"-3"----|-----3"--5"-6"-5"-3"----|
 |-3"---------------------|-3"---------------------|




 |------------------------|----------------|
 |------------------------|----------------|
 |------------------------|----------------|
 |---------------------5"-|----------6"-5"-|
 |-----3"--5"-6"-5"-3"----|-----3"-5"------|
 |-3"---------------------|-3"-------------|




 |------------------------|------------------------|
 |------------------------|------------------------|
 |---------------------7"-|---------------------8"-|
 |---------7"-8"-7"-5"----|---------7"-8"-7"-5"----|
 |-----5"-----------------|-----5"-----------------|
 |-3"---------------------|-3"---------------------|



 |------------------------|-----------------|
 |------------------------|-----------------|
 |---------------------7"-|-----------8"-7"-|
 |---------7"-8"-7"-5"----|-----5"-7"-------|
 |-----5"-----------------|-----------------|
 |-3"---------------------|-3"--------------|





 |-------------|------------------|
 |-------------|------------------|
 |-------------|------------------|
 |-2-----------|-6-5--2-----------|
 |-2-/-5-6-5~~-|-6-5--2-/-5-6-5~~-|
 |-0-----------|-4-3--0-----------|
                                



 |-------------------|------------------|------|
 |-------------------|------------------|------|
 |-------------------|------------------|------|
 |-3333--2-----------|-6-5--2-----------|-3333-|
 |-3333--2-/-5-6-5~~-|-6-5--2-/-5-6-5~~-|-3333-|
 |-1111--0-----------|-4-3--0-----------|-1111-|
   ....                                   ....



 |---------------------|---------------------|
 |---------------------|---------------------|
 |---------------------|---------------------|
 |-2222-3333-5555-6666-|-2222-3333-6666-5555-|
 |-2222-3333-5555-6666-|-2222-3333-6666-5555-|
 |-0000-1111-3333-4444-|-0000-1111-4444-3333-|
   .... .... .... ....   .... .... .... ....   



 |---------------------|----------------------|
 |---------------------|----------------------|
 |---------------------|----------------------|
 |-2222-3333-5555-6666-|-2222-3333-6666-------|
 |-2222-3333-5555-6666-|-2222-3333-6666--5ph~-|
 |-0000-1111-3333-4444-|-0000-1111-4444-------|     
   .... .... .... ....   .... .... ....
 




 
Tap to rate this tab
# A B C D E F G H I J K L M N O P Q R S T U V W X Y Z