Song name
# A B C D E F G H I J K L M N O P Q R S T U V W X Y Z

Belphegor - Sexdictator Lucifer tab

This isn't 100% accurate, but it's well enough. This is the main riff, minus the pinch
at the end; So it's essentially the rythm guitar. The bass during the verses is the same
played on the 4E string aswell. Also, it's in 4/4 signature, listen to the song as you 
it helps. Have fun, and feel free to email me if you have a better version, or if
know the rest of the chorus. blacksabbath5678@aim.com I speak english, spreche deutsch, 
hablo espanol.


Riff A
|----------------------------------------------|
|----------------------------------------------|
|----------------------------------------------|
|0-2-2-2-3-2-2-2-0-2-2-2-/7-6-0-2-2-2-3-2-2-2-0|
|0-2-2-2-3-2-2-2-0-2-2-2-/7-6-0-2-2-2-3-2-2-2-0|
|0-2-2-2-3-2-2-2-0-2-2-2-/7-6-0-2-2-2-3-2-2-2-0|


Riff B

|-----------------------------|
|-----------------------------|
|-----------------------------|
|0-2-2-2-3-2-2-2-0-2-3-2-0-1-0|
|0-2-2-2-3-2-2-2-0-2-3-2-0-1-0|
|0-2-2-2-3-2-2-2-0-2-3-2-0-1-0|

Verse: Riff B played on Bass
Tap to rate this tab
# A B C D E F G H I J K L M N O P Q R S T U V W X Y Z