Song name
# A B C D E F G H I J K L M N O P Q R S T U V W X Y Z

Belphegor - Hells Ambassador tab

"Belphegor- Hell's Ambassador"
Belphegor
Pestapokalypse VI
(Drop C Tuning)

I don't usually go for this type of music, but man this song kicks ass! This is my
first attempt at a "metal" tab... I was only able to determine up to the chorus

KEY
.= palm mute
<>= artificial harmonic
/= slide
\= slide
~= vibrato
b= bend
r= release

INTRO (Repeat 4x)
d|----------------------------------------------|
A|----------------------------------------------|
F|-----------------------------8------7--8--7---|
C|-0---6--0--5~------<1>---0-------0------------|
G|-0---6--0--5~------------0---6---0--5--6--5---|
C|-0---6--0--5~--0-0-------0-------0------------|
                 . .

INTRO (Tremelo picking part)
d|----------------------------------------------------------|
A|----------------------------------------------------------|
F|----------------------------------------------------------|
C|---------7-7-7-7-8-8-8-8-/12-12-12-12-11-11-11-11-8-8-8-8-|
G|-5-5-5-5--------------------------------------------------|
C|----------------------------------------------------------|

INTRO (Tremelo picking continued)
d|-----------------|----------------------------------------------|
A|-----------------|----------------------------------------------|
F|-----------------|----------------------------------------------|
C|-7-7-8-8-7-7-7-7-|---------5-5-5-5-7-7-7-7-8-8-8-8-/11-11-11-11-|
G|-----------------|-5-5-5-5--------------------------------------|
C|-----------------|----------------------------------------------|

INTRO (Tremelo picking continued)
d|-----------------------------------|
A|-----------------------------------|
F|-----------------------------------|
C|-8-8-8-8-7-7-7-7-5-5-7-7-5-5-5-5-5-|
G|-----------------------------------|
C|-----------------------------------|

INTRO (Slows down)
d|-------------------------------------------------------------------|
A|-------------------------------------------------------------------|
F|-18\15-15\14-14-14-12/14-14/15-15\14-14/18\15-15\14-14\12-12/14-14-|
C|-------------------------------------------------------------------|
G|-16\13-13\12-12-12-10/12-12/13-13\12-12/16\13-13\12-12\10-10/12-12-|
C|-------------------------------------------------------------------|

*PLAY TREMELO PICKING PART AND SLOW DOWN PART AGAIN*

VERSE INTRO (Repeat 2x)
d|----------------------------------------------------|
A|----------------------------------------------------|
F|-------------------/7-7-7-7-5-5-5-5-4-4-4-4-2-2-2-2-|
C|-/7-8-10b11r10-8-7----------------------------------|
G|-/5-6-8b9r8----6-5----------------------------------|
C|----------------------------------------------------|
                     [Repeat this part^^^^^^^^^^^^^^^^]

VERSE (Repeat both verse parts twice)
d|-------------------------------------------------------------------|
A|-------------------------------------------------------------------|
F|-------------------------------------------------------------------|
C|-------------------------------------------------------------------|
G|-5-5-5-5-5-5-----------6-6-6-6-6-6-----------5-5-5-5-5-5-----------|
C|-------------0-1b3r1-0-------------0-1b3r1-0-------------0-1b3r1-0-|

VERSE
d|-------------------------------------------------|
A|-------------------------------------------------|
F|-6-6-6-6-7-7-7-7-9-9-9-9-7-7-7-7-6-6-6-6-4-4-4-4-|
C|-------------------------------------------------|
G|-------------------------------------------------|
C|-------------------------------------------------|

PRE-CHORUS
d|------------------------------------------------------------|
A|----------------------10---9~~~-----------------------------|
F|-10---9~~~------------------------------10---9~~~-----------|
C|-----------0--1--4--0---------------------------------------|
G|-----------0--1--4--0---------------------------------------|
C|-----------0--1--4--0----------0-1b3r1-0----------0-1b3r1-0-|

CHORUS AND SOLO... sorry :(
Tap to rate this tab
 
# A B C D E F G H I J K L M N O P Q R S T U V W X Y Z