Song name
# A B C D E F G H I J K L M N O P Q R S T U V W X Y Z

Belvedere - Mediator tab

band: Belvedere
Album: angels live in my town
song: Mediator (track 7)
tuning: standard (EADGBe)

guitar comes in at around 7 and a half seconds with a pick slide on
e string to the intro

x=palm
x?= times what ever number

(intro) play very fast
e-------------------------------------------------------------------|
b-------------------------------------------------------------------|
g-------------------------------------------------------------------|
d-x-x-3-----------------3-------------------------------------------|
a-x-x-3-----------------2-------------------------------------------|
e-x-x-2-----------------2-------------------------------------------|
         x14              x2


Verse 1
e-------------------------------------------------------------------|
b-------------------------------------------------------------------|
g-------------------------------------------------------------------|
d-2-2--1-1-1--3-3-3--4-4-4------------------------------------------|
a-2-2--1-1-1--3-3-3--4-4-4--3-3-4-4-3-3-4-4-4-----------------------|
e-2-2--1-1-1--3-3-3--4-4-4--3-3-4-4-3-3-4-4-4-----------------------|
                                                x2

verse 2  (strumming)         bar (only play when noted)
e--------------------------`-----------------------------------------|
b--------------------------`-----------------------------------------|
g--------------------------`-----------------------------------------|
d-3------4-3-4-----3-------`--3-3-1----------------------------------|
a-3------4-3-4-----3-------`--2-2-1----------------------------------|
e-3------4-3-4-----3-------`--2-2-1----------------------------------|
                     x4      when adding bar play x6


then play intro (without pick slide)
verse 1
verse 2 (with bar)
then intro without pick slide


 fast cool part
e-4-3-4-3-0-2-1-2---------4-3-4-3-0--3-2-1--2-3-1-------------------|
b-------------------------------------------------------------------|
g-------------------------------------------------------------------|
d-------------------------------------------------------------------|
a-------------------------------------------------------------------|
e-------------------------------------------------------------------|

play verse 2(without bar)
play verse 2(with bar)

outro
e-------------------------------------------------------------------|
b-------------------------------------------------------------------|
g-------------------------------------------------------------------|
d-4-4-4--3-3-3------------------------------------------------------|
a-4-4-4--3-3-3------------------------------------------------------|
e-4-4-4--3-3-3------------------------------------------------------|

this is an easy song by a great band!!! check them out!!!
Tap to rate this tab
# A B C D E F G H I J K L M N O P Q R S T U V W X Y Z