Song name
# A B C D E F G H I J K L M N O P Q R S T U V W X Y Z

Belvedere - High School Heroics tab

Song: High School Heroics
Band: Belvedere (the best band ever!!!)
Tabbed by: Myles       skaterpunk_71@hotmial.com

B or^=bend
h=hammer on
p=pull off
/=slide
~=let ring
.=palm mute

Intro G.1   (x2)        G.2 comes in on second time
|-----------------------|---------------|
|------0----------------|---------------|
|-8888-5555-------------|-8--5----------|
|-8888-5555-5555-6xx8---|-8--5--5--6-8--|
|-6666-3333-5555-6xx8---|-6--3--5--6-8--|
|-----------3333-4xx6---|-------3--4-6--|

Verse (x4) G.1+2
|--------------------------|
|--------------------------|
|-8888-5555----------------|
|-8888-5555-(5555-6-8)-----|
|-6666-3333-(5555-6-8)-----|
|-----------(3333-4-6)-----|
Mute this bracket 2nd and 4th time

Chorus (x4) G.1+2
|--------------------------|
|--------------------------|
|-8888------5555-3333------|
|-8888-8888-5555-3333------|
|-6666-8888-3333-1111------|
|------6666----------------|

Repeat verse
Repeat chorus

Solo
|----------------------------------------------------------------|
|----------------------------------------------------------------|
|-15-13-12-13-12-10h12p10-8h10p8-7-8-10b8-7-5-3-0-1-0b3-15-13-12-|
|----------------------------------------------------------------|
|----------------------------------------------------------------|
|----------------------------------------------------------------|
End on a high note
|----------------------------------------------------------------|
|-16^--15-13----------------play fast----------------------------|
|------------15-13/12-------(1215139)-10-8-7-8-10-12-10-13-12-13-|
|---------------------13-15--------------------------------------|
|----------------------------------------------------------------|
|----------------------------------------------------------------|
Repeat chorus
Break and Outro
|----------------------------------------------------------|
|----------------------------------------------------------|
|-8~~---------------------------------------------------8~-|
|-8~~-----------------------------------555-555-666-888-8~-|
|-6~~-10~~-6-6-8-6~~6-6-8-10~~6-6-8-6~~-555-555-666-888-6~-|
|---------------------------------------333-333-444-666----|
                                        ..  ..  ..  ..
Tap to rate this tab
# A B C D E F G H I J K L M N O P Q R S T U V W X Y Z