Song name
# A B C D E F G H I J K L M N O P Q R S T U V W X Y Z

Ben Arnold - You tab

-------------------------------------------------------------------------------
			     You - Black Stone Cherry
-------------------------------------------------------------------------------
Tabbed by:brokenunder
Email:tears--dont--fall@hotmail.co.uk

Tuning:D Standard (DGCFAd)

Intro
Rhythm
d|------------------0------------------------0--0----------------------------|
A|--1----1/3-1-------------1-----------------1--1----------------------------|
F|-0-0--0--------0h2------0-0--------------0-0--0----------------------------|
C|--------------2--------0---0---X2 then---2----2----------------------------|
G|3----2-------0------2h3------------------3----3----------------------------|
D|---------------------------------------------------------------------------|
                           down pick -->  \/ /\ <-- up pick
                      
Lead
d|-----------------|-------|-------|
A|-----------------|-8b10r8|-------|
F|-9b10r9b10r9b10--|-------|-------|
C|---------------10|-------|-/10---|
G|-----------------|-------|-------|
D|-----------------|-------|-------|

Verse
Rhythm
d|---0-----0-----0-0----00---33---1-1----00----33----------------------------|
A|---1-0h1-1-----1-1----11---00---1-1----11----00----------------------------|
F|-0-0-0---0---0-0-0----00---00---2-2----00----00----------------------------|
C|-2---2---2---2---2--- 22---00-3-3-3----22----00-33333333-55555555----------|
G|-3---3---3---3---3---3--------3---3---3---------33333333-55555555----------|
D|------------------------333---------------333---11111111-33333333----------|
                                                  PM--------------|
Lead
d|----------------------|
A|--/8-------/8---------|
F|----------------------|
C|----------------------|
G|----------------------|
D|----------------------|
  played when palm muting starts

Chorus
Rhythm
d|---------------------------------------------------------------------------|
A|---------------------------------------------------------------------------|
F|------5555-------------5555-------------5555-------------------------------|
C|-3333-5555-5555---3333-5555-5555---3333-5555-2222-77-55-33333333-5~--------|
G|-3333-3333-5555---3333-3333-5555---3333-3333-2222-77-55-33333333-5~--------|
D|-1111------3333---1111------3333---1111------0000-55-33-11111111-3~--------|

Lead
d|--------------------|---------------------|--------------------------------|
A|--------------------|---------------/8----|-8b10-10-8-6------/8~-----------|
F|9b10r9b10r9b10------|-9b10r9b10r9b10------|--------------------------------|
C|--------------10----|---------------------|--------------------------------|
G|--------------------|---------------------|--------------------------------|
D|--------------------|---------------------|--------------------------------|
"..too raise a child""...to march the mile"... this carries on from the last lick

Post chorus
Rhythm
d|------------------0--------------------------------------------------------|
A|--1----1/3-1-------------1-------------------------------------------------|
F|-0-0--0--------0h2------0-0------------------------------------------------|
C|--------------2--------0---0---X2 then-------------------------------------|
G|3----2-------0------2h3----------------------------------------------------|
D|---------------------------------------------------------------------------|
                           
Lead
d|---------|-----------------------------------------------------------------|
A|---------|-----------------------------------------------------------------|
F|---------|--/7--7b9-10p9-10p9----------------------------------------------|
C|-10-9-7-5|-----------------------------------------------------------------|
G|---------|-----------------------------------------------------------------|
D|---------|-----------------------------------------------------------------|
 ^i think he bends the strings slightly on each note

Verse
Rhythm
d|---0-----0-----0-0----00---33---1-1----00----33----------------------------|
A|---1-0h1-1-----1-1----11---00---1-1----11----00----------------------------|
F|-0-0-0---0---0-0-0----00---00---2-2----00----00----------------------------|
C|-2---2---2---2---2--- 22---00-3-3-3----22----00-33333333-55555555----------|
G|-3---3---3---3---3---3--------3---3---3---------33333333-55555555----------|
D|------------------------333---------------333---11111111-33333333----------|
                                                  PM--------------|

Lead
d|---------------|-------------------|
A|--/8-----------|--/8-8b10r8--------|
F|-----10p9-10p9-|-------------------|
C|---------------|-------------------|
G|---------------|-------------------|
D|---------------|-------------------|
    ^quiet          ^starts at the palm muting


Chorus

Bridge
Rhythm
d|---------------------------------------------------------------------------|
A|---------------------------------------------------------------------------|
F|55-44-22---------------------------------------------------77777777--------|
C|55-55-22-55-333333-7777-5555-3--3--3--3-7777-5555-33333333-7777777733333333|
G|33-22-00-55-333333-7777-5555-3--3--3--3-7777-5555-33333333-5555555533333333|
D|---------33-111111-5555-3333-1--1--1--1-5555-3333-11111111---------11111111|

Lead
d|---------------------------------------------------------------------------|
A|---/5b6-------/5b6-------/5b6----------------------------------------------|
F|---------------------------------------------------------------------------|
C|---------------------------------------------------------------------------|
G|---------------------------------------------------------------------------|
D|---------------------------------------------------------------------------|

Solo
d|------------------------------------------------------8--------------------|
A|-5---10p8-----------5-------------------------8h10p8-8-8h10p8--------------|
F|-7b9-----9-7b9r7\5--7b9-9p7-5------5h7p5-5-5/7------9--------9\7----5/7----|
C|------------------7--------7-7--5-7-----7-----------------------10/7-------|
G|---------------------------------------------------------------------------|
D|---------------------------------------------------------------------------|

d|---------------------------------------------------15----------------------|
A|---------------------------13-----13--15--13--15b17--17r-13-15-17-15-13--13|
F|7h9p7--7--------------12-14-----12--14--14-----------------------------14--|
C|-----10-7h10p7-5----14--------14-------------------------------------------|
G|---------------------------------------------------------------------------|
D|---------------------------------------------------------------------------|

d|-19p15--15p12--12p10-----------------------------------|
A|------17-----15-----13-15p13---------------------------|
F|----------------------------14-14p12-------------------|
C|------------------------------------14-17p14-----------|
G|--------------------------------------------17-17p15---|
D|----------------------------------------------------17-|

d|----------------------------12p10--15p12--19p15--15-19b21r19---------------|
A|---------------------15p13-------13-----15-----17--------------------------|
F|--------------14p12-------14-----------------------------------------------|
C|-------17p14-------14------------------------------------------------------|
G|17p15-------17-------------------------------------------------------------|
D|-----17--------------------------------------------------------------------|
the last bit of the solo is basically impossible to tab so
i toook a rough guess

Solo rhythm
d|---------------------------------------------------------------------------|
A|---------------------------------------------------------------------------|
F|-55-44-22-----55-44-22-----------------------------------------------------|
C|-55-55-22-33--55-55-22-33--33333333-55555555-------------------------------|
G|-33-22-00-33--33-22-00-33--33333333-55555555-------------------------------|
D|----------11-----------11--11111111-33333333-------------------------------|

Chorus X2

Outro
d|-------------------0-----------------------------0------------1~-----------|
A|---1----1/3-1-------------1------1----1/3-1--------------1----1~-----------|
F|--0-0--0--------0h2------0-0----0-0--0--------0h2-------0-0-0-0~-----------|
C|---------------2--------0---0----------------2---------0---0--2~-----------|
G|-3----2-------0------2h3-------3----2-------0-------2h3-------3~-----------|
D|---------------------------------------------------------------------------|


| /  slide up
| \  slide down
| h  hammer-on
| p  pull-off
| ~  vibrato
| +  harmonic
| x  Mute note
===============================================================================
Tap to rate this tab
# A B C D E F G H I J K L M N O P Q R S T U V W X Y Z