Guitaretab - guitar tabs
Song name
# A B C D E F G H I J K L M N O P Q R S T U V W X Y Z

Ben E King - Stand By Me tab

Tabbed by: PIC
Song: Stand By Me
Artist: Ben E. King
Standard Tuning

This is a good song by Ben E. King


e-------------------------------------------------------------|
B-------------------------------------------------------------|
G-------------------------------------------------------------|
D-------------------------------------------------------------|
A--2-3-x-3-2-3-x-3-3-2-0-x-0--0-x-0-0--------0--------2-3-x-3-|
E-3-------3-----------------0--------31-x-1-1--3-x-3-3--------|


e--------0-3-5----0--3-----------------0-------------------|
B-----------------------------------1h3--3--1--------------|
G----------------------------------------------------------|
D----------------------------------------------------------|
A--2-3-x-3--2-3-x-3-2-3-x-3-3-2-0-x-0-------0-x-0-0--------|
E-3-------3--------3---------------------0---------3-1-x-1-|

[ Tab from: http://www.guitaretab.com/b/ben-e-king/186175.html ]
e--0------------------------0-3-5----0-3-5---5p3-0--------|
B-1--3----1---1------------------------------------3-3p1--|
G---------------------------------------------------------|
D---------------------------------------------------------|
A--0--------2-3-x-3--2-3-x-3--2-3-x-3--2-3-x-3---3-2-0--x-|
E-1--3-x3-3--------3--------3--------3--------------------|


e----------------0-------0------------------5-3-8-7-5p3---|
B--1h3-1------1-3--1----1--3------1--1--------------------|
G-----------------------------------------------0---------|
D---------------------------------------------------------|
A-0-----0-x-0-0----------0---------2-3-x--2-3-------------|
E-----0--------3-1--x-1-1---3-x-3-3------3----------------|


e-5--3------------------------------0-------0-------0-----|
B---------5p3-----3p1----3-1-----1-3--1----1--3------3----|
G---------------------------------------------------------|
D---------------------------------------------------------|
A--2-3-x-3----3-2-0---x-0--0-x-0-0-----------0-------2----|
E-3----------------------0--------3-1--x-1-1--3-x-3-3-----|


e------0---------------|
B-1------3-1-----------|
G----------------------|         Repeat Beginning
D----------------------|              Lick
A-3-x-3--2-3-x-3--2----|
E------3--------3------|

Hope You Enjoy!
Related for Stand By Me tab
Advertisement will be closed in 10 seconds