Song name
# A B C D E F G H I J K L M N O P Q R S T U V W X Y Z

Ben E King - Stand By Me Acoustic tab

this is my first tab so it might suck


e|---------------------------------------------------------------------------|
B|---------------------------------------------------------------------------|
G|---------------------------------------------------------------------------|
D|---------------------------------------------------------------------------|
A|---------------------------------------------------------------------------|
D|--7--7-467-7-764-4-024-4-420-0-042-2-04/7-7--------------------------------|

this is wher he sings i only got this part i'll figure the rest later
e|---02---0------------------------------------------------------------------|
B|--2----2-----------------02--220-------------------------------------------|
G|-----------2-4h5h6-4-2--2--2------2h4p2------------------------------------|
D|---------------------------------------------------------------------------|
A|---------------------------------------------------------------------------|
D|---------------------------------------------------------------------------|

ill put the rest of the tab when i figure it out 
Tap to rate this tab
 
# A B C D E F G H I J K L M N O P Q R S T U V W X Y Z