Song name
# A B C D E F G H I J K L M N O P Q R S T U V W X Y Z

Ben E King - Stand By Me Acoustic tab

E|--------------------------------------------------------------------------------|
B|--------------------------------------------------------------------------------|
G|--------------------------------------------------------------------------------|
D|--------------------------------------------------------------------------------|
A|--2-3-x-3----2-3-x-3-3-2-0-x-0-0-x-0-0---------0-------2-3-3x-2-3-x-3-----------|
E|-3----------3-----------------3-------3-1-x-1-1-3-x-3-3------3------------------|

E|-0-3-5-----0---3------------------0-------------0---------0---------------------|
B|------------------------------1h3---3-1-----1-3---1----1----3-----1-3-3-1-------|
G|--------------------------------------------------------------------------------|
D|--------------------------------------------------------------------------------|
A|--------------------------------------------------------------------------------|
E|---2-3-x-3---2-3-x-3-3-2-0-x-0--------0-x-0-0-------------0---------2-3-3-x-3---|
e|-3---------3------------------------0---------3-1---x-1-1---3-x-3-3-------------|

E|---------0-3-5---0-3-5---5p-3-0------------------------0-------0----------------|
B|--------------------------------3-3p-1----1h-3-1---1-3---1----1--3-----1-3-3-1--|
G|--------------------------------------------------------------------------------|
D|--------------------------------------------------------------------------------|
A|--2-3-x-3-2-3-x-3--2-3-x-3----3-2-0---x-0------0-0-0-----------0---------2-3-3--|
e|-3-------3-------3-----------------------------------3-1--x-1-1--3-x-3-3--------|

E|-------5-3-8-7-5p-3---5---3----5p-3-0------------------------0-------0----------|
B|--------------------------------------3-3p-1----1h-3-1---1-3---1---1---3-1-3-3-1|
G|-----------0--------------------------------------------------------------------|
D|--------------------------------------------------------------------------------|
A|--3-2-3--------3--x-3---2-3-x--3----3-2-0---x-0------0-0-0-----------0-----2-3-3|
e|3---------------------3------------------------------------3-1---11---3-3------|

E|-------5-3-8-7-5p-3---5--3------------------------------------0--------0--------|
B|-------------------------------5p-3-----3p-1---1-3p-1-----1-3---1----1---3-----1|
G|-----------0--------------------------------------------------------------------|
D|--------------------------------------------------------------------------------|
A|-----2-3-------3---x-3-2-3-x-3------3-2-0---x-0-----0-x-0-0------------0--------|
e|----3-----------------3-------------------------------------3-1--x-1-1---3-x-3-3|

E|---------0---------|
B|-3-1-------3-1---1-|
G|-------------------|
D|-----------------2-|
A|-2-3-x-3---2-3-x-3-|
e|---------3---------|
Tap to rate this tab
# A B C D E F G H I J K L M N O P Q R S T U V W X Y Z