Song name
# A B C D E F G H I J K L M N O P Q R S T U V W X Y Z

Ben Folds Five - Battle Of Who Could Care Less tab

----------------------------------------------------------------------------
			     battle of who could care less - benfolds five
----------------------------------------------------------------------------
Tabbed by:sam
Email:

Tuning:standard

e|----10------------8----------7---------5--------5---------5------------------|
B|----10------------8----------7---------5--------5---------5------------------|
G|----11------------8----------8---------6--------4---------6------------------|
D|----10------------9----------7---------5--------3---------5------------------|
A|----12-----------10----------9---------7--------5---------7------------------|
E|----10------------8----------7---------5--------3---------5------------------|

e|--------7---------8----------------------------------------------------------|
B|--------7---------8----------------------------------------------------------|
G|--------8---------9----------------------------------------------------------|
D|--------7---------8----------------------------------------------------------|
A|--------9--------10----------------------------------------------------------|
E|--------7---------8----------------------------------------------------------|

============================================================================
Tap to rate this tab
# A B C D E F G H I J K L M N O P Q R S T U V W X Y Z