Song name
# A B C D E F G H I J K L M N O P Q R S T U V W X Y Z

Ben Folds Five - Brick tab

Song:   Brick (Midified to be a little easier to play for us newbies)
Artist: Ben Folds Five
Album:  Whatever and Ever Amen
        Piano arr. for solo fingerpicked guitar
        by Dane Christensen 

Notes:  Tuning is standard, but to play with the CD, tune down
        1 whole step, so tuning is D G C F A d.

Intro               __________________
                           3 times... |
e||-4-----4---------|-----------------|-4-----4---------|-----------------|
B||-----5-----7---5-|-7---5-7-5---5-7-|-----5-----7---5-|---5-7---5-7---5-|
G||*--4-----4---4---|---4-------4----*|---4-----4---4---|-4-----3-----4---|
D||*----------------|----------------*|-----------------|-----------------|
A||-----------------|-0-----0-----0---|-4-----4-----4---|-----------------|
E||-0-----0-----0---|-----------------|-----------------|-2-----2-----2---|


Verse

e|-4-----4---------|-----------------|-4-----4---------|-----------------|
B|-----5-----7---5-|-7---5-7-5---5-7-|-----5-----7---5-|-7---5-7-5---5-7-|
G|---4-----4---4---|---4-------4-----|---4-----4---4---|---4-------4-----|
D|-----------------|-----------------|-----------------|-----------------|
A|-----------------|-0-----0-----0---|-----------------|-0-----0-----0---|
E|-0-----0-----0---|-----------------|-0-----0-----0---|-----------------|

e|-4-----4---------|-----------------|-4-----4---------|-----------------|
B|-----5-----7---5-|-----5-7-5---5-7-|-----5-----7---5-|-7---5-7-5---5-7-|
G|---4-----4---4---|---4-------4-----|---4-----4---4---|---4-------4-----|
D|-----------------|-----------------|-----------------|-----------------|
A|-----------------|-0-----0-----0---|-----------------|-0-----0-----0---|
E|-0-----0-----0---|-----------------|-0-----0-----0---|-----------------|


Interlude 1

e|-4-----4---------|-----------------|-4-----4---------|-----------------|
B|-----5-----7---5-|-7---5-7-5---5-7-|-----5-----7---5-|-7---5-7-5---5-7-|
G|---4-----4---4---|---4-------4-----|---4-----4---4---|---4-------4-----|
D|-----------------|-----------------|-----------------|-----------------|
A|-----------------|-0-----0-----0---|-----------------|-0-----0-----0---|
E|-0-----0-----0---|-----------------|-0-----0-----0---|-----------------|


Interlude 2

e|-4-----4---------|-----------------|-4-----4---------|-----------------|
B|-----5-----7---5-|-7---5-7-5---5-7-|-----5-----7---5-|-7---5-7-5---5-7-|
G|---4-----4---4---|---4-------4-----|---4-----4---4---|---4-------4-----|
D|-----------------|-----------------|-----------------|-----------------|
A|-4-----4-----4---|-0-----0-----0---|-4-----4-----4---|-0-----0-----0---|
E|-----------------|-----------------|-----------------|-----------------|

e|-4-----4---------|-----------------|-4-----4---------|-----------------|
B|-----5-----7---5-|-7---5-7-5---5-7-|-----5-----7---5-|---5-7---5-7---5-|
G|---4-----4---4---|---4-------4-----|---4-----4---4---|-4-----3-----4---|
D|-----------------|-----------------|-----------------|-----------------|
A|-----------------|-0-----0-----0---|-4-----4-----4---|-----------------|
E|-0-----0-----0---|-----------------|-----------------|-2-----2-----2---|


Interlude 3

e|-4-----4---------|-----------------|-4-----4---------|-----------------|
B|-----5-----7---5-|-7---5-7-5---5-7-|-----5-----7---5-|-7---5-7-5-------|
G|---4-----4---4---|---4-------4-----|---4-----4---4---|---4-------------|
D|-----------------|-----------------|-----------------|-----------------|
A|-----------------|-0-----0---------|-----------------|-0---------------|
E|-0-----0---------|-----------------|-0-----0---------|-----------------|
                                                            let ring.....

Chorus 1

e|-0-----0---------|-0-----0-----0---|-0-----0---------|-0-----0-----0---|
B|-2-----4---------|-0-----0-----0---|-2-----4---------|-0-----0-----0---|
G|-2-----4---------|-1-----1-----1---|-2-----4---------|-1-----1-----1---|
D|-2-----4---------|-2-----2-----2---|-2-----4---------|-2-----2-----2---|
A|-0-0-0-2-2-2-2-2-|-2-----2-----2---|-0-0-0-2-2-2-2-2-|-2-----2-----2---|
E|-----------------|-0-0-0-0-0-0-0-0-|-----------------|-0-0-0-0-0-0-0-0-|

e|-0-----0---------|-0-----0-----0---|-5-----7-----5-0-|-2h4-------------|
B|-2-----4---------|-0-----0-----0---|---5-----7-------|-----------------|
G|-2-----4---------|-1-----1-----1---|-----6-----8-----|-----------------|
D|-2-----4---------|-2-----2-----2---|-----------------|-2---------------|
A|-0-0-0-2-2-2-2-2-|-2-----2-----2---|-----------------|-----------------|
E|-----------------|-0-0-0-0-0-0-0-0-|-5-----7-----5---|-----------------|
                                                         let ring........

Chorus 2

e|-0-----0---------|-0-----0-----0---|-0-----0---------|-0-----0-----0---|
B|-2-----4---------|-0-----0-----0---|-2-----4---------|-0-----0-----0---|
G|-2-----4---------|-1-----1-----1---|-2-----4---------|-1-----1-----1---|
D|-2-----4---------|-2-----2-----2---|-2-----4---------|-2-----2-----2---|
A|-0-0-0-2-2-2-2-2-|-2-----2-----2---|-0-0-0-2-2-2-2-2-|-2-----2-----2---|
E|-----------------|-0-0-0-0-0-0-0-0-|-----------------|-0-0-0-0-0-0-0-0-|

e|-0-----0---------|-0-----0-----0---|-5-----7-----5---|---7---4---5---0-|
B|-2-----4---------|-0-----0-----0---|---5-----7-----5-|---------5-------|
G|-2-----4---------|-1-----1-----1---|-----6-----8-----|-6---8-------6---|
D|-2-----4---------|-2-----2-----2---|-----------------|-----------------|
A|-0-0-0-2-2-2-2-2-|-2-----2-----2---|-----------------|-----------------|
E|-----------------|-0-0-0-0-0-0-0-0-|-5-----7-----5---|---7---4---------|

e|-2h4-------------|-5-----7-----5---|---7---4---5-----|
B|-----------------|---5-----7-----5-|---------5-------|
G|-----------------|-----6-----8-----|-6---8-----------|
D|-2---------------|-----------------|-----------------|
A|-----------------|-----------------|-----------------|
E|-----------------|-5-----7-----5---|---7---4---5-----|
   let ring........ (Ben plays 8va up)       ring......


Bridge

e|-2-----2-----2---|-0-----0-----0---|-0-----0-----0---|-2-----2-----2---|
B|-2-----2-----2---|-2-----2-----2---|-0-----0-----0---|-2-----2-----2---|
G|-3-----3-----3---|-2-----2-----2---|-1-----1-----1---|-3-----3-----3---|
D|-4-----4-----4---|-2-----2-----2---|-2-----2-----2---|-4-----4-----4---|
A|-4-----4-----4---|-0-0-0-0-0-0-0-0-|-2-----2-----2---|-4-----4-----4---|
E|-2-2-2-2-2-2-2-2-|-----------------|-0-0-0-0-0-0-0-0-|-2-2-2-2-2-2-2-2-|

e|-0-----0-----0---|-0-----0-----0---|-2-----2-----2---|-0-----0-----0---|
B|-2-----2-----2---|-0-----0-----0---|-2-----2-----2---|-2-----2-----2---|
G|-2-----2-----2---|-1-----1-----1---|-3-----3-----3---|-2-----2-----2---|
D|-2-----2-----2---|-2-----2-----2---|-4-----4-----4---|-2-----2-----2---|
A|-0-0-0-0-0-0-0-0-|-2-----2-----2---|-4-----4-----4---|-0-0-0-0-0-0-0-0-|
E|-----------------|-0-0-0-0-0-0-0-0-|-2-2-2-2-2-2-2-2-|-----------------|

e|-0-----0-----0---|-2-----2-----2---|-0---------------|
B|-0-----0-----0---|-2-----2-----2---|-2---------------|
G|-1-----1-----1---|-3-----3-----3---|-2---------------|
D|-2-----2-----2---|-4-----4-----4---|-2---------------|
A|-2-----2-----2---|-4-----4-----4---|-0---------------|
E|-0-0-0-0-0-0-0-0-|-2-2-2-2-2-2-2-2-|-----------------|
                                       let ring........

Chorus 3

e|-0-----0---------|-0-----0-----0---|-0-----0---------|-0-0---0-----0---|
B|-2-----4---------|-0-----0-----0---|-2-----4---------|-0-0---0-----0---|
G|-2-----4---------|-1-----1-----1---|-2-----4---------|-1-1---1-----1---|
D|-2-----4---------|-2-----2-----2---|-2-----4---------|-2-2---2-----2---|
A|-0-0-0-2-2-2-2-2-|-2-----2-----2---|-0-0-0-2-2-2-2-2-|-2-2---2-----2---|
E|-----------------|-0-0-0-0-0-0-0-0-|-----------------|-0-0-0-0-0-0-0-0-|

e|-0-----0---------|-4-----2---------|-5-----7-----5---|---7---4---5---0-|
B|-2-----4---------|-5-----4---------|---5-----7-----5-|---------5-------|
G|-2-----4---------|-6-----4---------|-----6-----8-----|-6---8-------6---|
D|-2-----4---------|-6-----4---------|-----------------|-----------------|
A|-0-0-0-2-2-2-2-2-|-4-4-4-2---------|-----------------|-----------------|
E|-----------------|-----------------|-5-----7-----5---|---7---4---------|
                           let ring...
e|-2h4-------------||
B|-----------------||
G|-----------------||
D|-----------------||
A|-----------------||
E|-0---------------||
   let ring........



Intro
Verse 1:

Interlude 1
Verse (2x):
   
Interlude 2:

Chorus 1:

Interlude 3
Verse (2x):

Interlude 2:
   
Chorus 2
  
Bridge
   
Interlude 1
Verse
   
Chorus 3

Tap to rate this tab
 
# A B C D E F G H I J K L M N O P Q R S T U V W X Y Z