Song name
# A B C D E F G H I J K L M N O P Q R S T U V W X Y Z

Ben Folds Five - Rockin The Suburbs tab

Well, I know some of it...

Intro
w/ distortion
e|-------------------------------------------       ---------------------------1------|
b|----------------------5-x-x-5---5-x-x-5---       --------------------------1--------|
g|-5-x-x-5---7-x-x-7---5-x-x-5---5-x-x-5----      -7-x-x-7---15p14--14h15-------------|
d|-5-x-x-5---7-x-x-7---3-x-x-3---5-x-x-5---   x2 -7-x-x-7-----------------------------|
a|-3-x-x-3---5-x-x-5-------------3-x-x-3----       -5-x-x-5---------------------------|
e|-------------------------------------------       ----------------------------------|
                                                                                         
                 ^
                                                                                         
       Alpha ||

Verse 1
e|----------------------------|
b|----------------------------|
g|-------2--------------------|
d|-2--4------2--4---  x3------|     Intro w/o distortion, no alpha
a|-----------------3----------|
e|----------------------------|


Chorus
Not sure of the rhythym -- w/ distortion

e|----------|
b|----------|
g|-5--7--1--|
d|-5--7--3--|
a|-3--5--3--|
e|----------|

Verse-- Intro w/ distortion, no alpha, +1/2

Chorus

Verse 2
e|------------------------------------------------------|
b|------------------------------------------------------|
g|-------------------------------------------2-2--------|
d|-----------3-3--3-3-5--------------3-3--3-----5-------|   x6, then x2 w/ dist.
a|-3--3-3h5----------------3--3-3h5---------------------|
e|------------------------------------------------------|

e|-----
b|-----
g|-7---
d|-7---
a|-5---
e|-----
Alpha

Verse 1, only once, then w/ dist. once, then to intro w/o alpha twice

Chorus

Don't know ending, but it has part of verse 2

Hope you like it!

- football_fanatic_11

GO VIKINGS!!
Tap to rate this tab
 
# A B C D E F G H I J K L M N O P Q R S T U V W X Y Z