Song name
# A B C D E F G H I J K L M N O P Q R S T U V W X Y Z

Ben Folds Five - Evaporated tab

song      : evaporated
artist    : ben folds five
tabbed by : oneshotnothing


guitar adaptation of the piano part


capo on 1st fret
chords relative to capo


intro:

e-|0---0---0---0---0---0---0---0---0---0---0---0---0---0---0---0---|
b-|0---0---0---0---0---0---0---0---0---0---0---0---0---0---0---0---|
g-|4---4---4---4---4---4---4---4---4---4---4---4---4---4---4---4---|
d-|2-------2-------2---------------2-------2-------2---------------|
a-|x-------x-------0---------------x-------x-------0---------------|
E-|0-------4-----------------------0-------4-----------------------|


verse:

e-|0---0---0---0---0---0---0---0---0---0---0---0---0---0---0---0----|
b-|0---0---0---0---0---0---0---0---0---0---0---0---0---0---0---0----|
g-|4---4---4---4---4---4---4---4---4---4---4---4---4---4---4---4----|
d-|2-------2-------2---------------2-------2-------2----------------|
a-|x-------x-------0---------------x-------x-------0------------2-3-|
E-|0-------4-----------------------0-------4------------------------|

   what i've kept with me...


e-|0---0---0---0---0---0---0---0---0---0---0---0---0---0---0---0---|
b-|0---0---0---0---0---0---0---0---0---0---0---0---0---0---0---0---|
g-|4---4---4---4---4---4---4---4---4---4---4---4---4---4---4---4---|
d-|2---2---2---2---4---4---2---2---2-------------------------------|
a-|4---4---4---4---2---2---2---2---0-------------------------------|
E-|--------2---2-----------0---0-----------------------------------|

   things i really cared about...


e-|0---0---0---0---0---0---0---0---0---0---0---0---0---0---0---0----|
b-|0---0---0---0---0---0---0---0---0---0---0---0---0---0---0---0----|
g-|4---4---4---4---4---4---4---4---4---4---4---4---4---4---4---4----|
d-|2-------2-------2---------------2-------2-------2----------------|
a-|x-------x-------0---------------x-------x-------0------------2-3-|
E-|0-------4-----------------------0-------4------------------------|

   woke up way too late...


e-|0---0---0---0---0---0---0---0---0---0---0---0---0---0---0---0---|
b-|0---0---0---0---0---0---0---0---0---0---0---0---0---0---0---0---|
g-|4---4---4---4---4---4---4---4---4---4---4---4---4---4---4---4---|
d-|2---2---2---2---4---4---2---2---2-------------------------------|
a-|4---4---4---4---2---2---2---2---0-------------------------------|
E-|--------2---2-----------0---0-----------------------------------|

   thinking 'bout my old man...


prechorus:

e-|0-------0----------------|
b-|0-------0----------------|
g-|4-------2----------------|
d-|2-------2----------------|
a-|x-------0----------------|
E-|4------------------------|

   anywhere


chorus:

e-|0---0---0---0---0---0---0---0---0---0---0---0---0---0-----0---0---|
b-|0---0---0---0---0---0---0---0---0---0---0---0---0---0-----0---0---|
g-|6---6---8---8---x---x---1---1---6---6---8---8---8---8-----8---8---|
d-|7---7---9---9---1---1---2---2---7---7---9---9---9---9-----9---9---|
a-|7---7---9---9---2---2---2---2---7---7---9---9---x---------6---6---|
E-|5---5---7---7---2---2---0---0---5---5---7---7---9----9-10---------|

   stand...


e-|0---0---0---0---0---0---0---0---0---0---0---0---0---0---0---0---|
b-|0---0---0---0---0---0---0---0---0---0---0---0---0---0---0---0---|
g-|6---6---8---8---9---9---4---4---2---------------4---------------|
d-|7---7---9---9---9---9---4---4---2---------------2---------------|
a-|7---7---9---9---x---x---x---x---0---------------x---------------|
E-|5---5---7---7---9---9---4---4-------------------4---------------|

   done...


prebridge:

e-|0---0---0---0---|
b-|2---2---2---2---|
g-|3---3---3---3---|
d-|2---2---2---2---|
a-|x---x---x---x---|
E-|3---3---3---3---|


bridge:

e-|----------------0---0---0---0---0---0---0---0---0---0---0-------|
b-|4---------4-5-4-2---2---2---2---4---4---0---0---2---2---0-2-----|
g-|4-------4-4-4-4-2---2---2---2---4---4---1---1---2---2---2---2---|
d-|4-----4---------2---2---2---2---4---4---2---2---2---2---2---2---|
a-|2---2-----------0---0---0---0---2---2---2---2---0---0---0---0---|
E-|----------------------------------------0---0-------------------|

                   i poured my heart out...

e-|----------------0---|
b-|4---------4-5-4-2---|
g-|4-------4-4-4-4-2---|
d-|4-----4---------2---|
a-|2---2-----------0---|
E-|--------------------|

structure:

intro
verse
prechorus
chorus
intro
verse
chorus
prebridge
bridge
intro
half of verse
chorus
intro x2
Tap to rate this tab
 
# A B C D E F G H I J K L M N O P Q R S T U V W X Y Z