Guitaretab - guitar tabs
Song name
# A B C D E F G H I J K L M N O P Q R S T U V W X Y Z

Ben Folds Five - Rocking The Suburbs tab

----------------------------------------------------------------------------
		    Rockin The Suburbs  Ben Folds Five
----------------------------------------------------------------------------
Tabbed by: Adam Stefano
Email: adamstefano@hotmail.com
This is my first tab, plz make comments bout it, n sorry I can only figure out
the intro and the verses. But plz comment so I can add to it. cheers
[ Tab from: http://www.guitaretab.com/b/ben-folds-five/36252.html ]
Tuning: E A D G B e
	
Intro
	Guitar 1
e|-------------------------------------------------------------------------|
B|-------------------------------------------------------------------------|
G|-5-x-x-5-x-x-7-7-7-x-3-x-x-3-x-x-5-5-5-----------------------------------|
D|-5-x-x-5-x-x-7-7-7-x-3-x-x-3-x-x-5-5-5-----------------------------------|
A|-3-x-x-3-x-x-5-5-5-x-1-x-x-1-x-x-3-3-3------x4---------------------------|
E|-------------------------------------------------------------------------|
	Guitar 2
e|-------------------------------------------------------------------------|
B|-------------------------------------------------------------------------|
G|-5-----7-----10-----5-----7-----3----------------------------------------|
D|-5-----7-----10-----5-----7-----3----------------------------------------|
A|-3-----5-----8------3-----5-----1----------------------------------------|
E|-------------------------------------------------------------------------|
	Guitars 1 & 2
e|-------------------------------------------------------------------------|
B|-------------------------------------------------------------------------|
G|----5--------------------------------------------------------------------|
D|----5--------------------------------------------------------------------|
A|----3--------------------------------------------------------------------|
E|-------------------------------------------------------------------------|
	Guitar 1
e|------------------------17^----------------------------------------------|
B|-------16--13-16p13------------------------------------------------------|
G|-15/17--------------17---------------------------------------------------|
D|-------------------------------------------------------------------------|
A|-------------------------------------------------------------------------|
E|-------------------------------------------------------------------------|

Verses
        Guitar 2 
e|-------------------------------------------------------------------------|
B|-------------------------------------------------------------------------|
G|-5-----7-----10-----5-----7-----3----------------------------------------|
D|-5-----7-----10-----5-----7-----3----------------------------------------|
A|-3-----5-----8------3-----5-----1------x3--------------------------------|
E|-------------------------------------------------------------------------|

| /  slide up
| \  slide down
| h  hammer-on
| p  pull-off
| ~  vibrato
| +  harmonic
| x  Mute note
============================================================================
Related for Rocking The Suburbs tab