Song name
# A B C D E F G H I J K L M N O P Q R S T U V W X Y Z

Ben Folds - Sentimental Guy tab

Tabbed By: A. C. Willis

e-mail: ScalesXIII@aol.com

my guess would be that this tab is being written for a pretty small target audience
who want to play ben folds songs), but its a good song, so i figured it was worth it. some
the chord voicings he uses cant really be played on guitar, but ive gotten it as close 
i possibly can. if you have an A(add4) chord that goes with the song better, e-mail me.
one i have down kind of bugs me to play.

Verse:

    D   F#7/C# Bm7   E9     A   Asus    A    Bm7  A/C#
e|-----|-----|-----|-----|-----|-----|-----|-----|-----|
B|--7--|--7--|--7--|--7--|--5--|--5--|--5--|-----|-----|
G|--7--|--9--|--7--|--7--|--6--|--7--|--6--|--7--|--9--|
D|--7--|--8--|--7--|--6--|--7--|--7--|--7--|--7--|-(7)-|
A|--5--|-----|-----|-----|--0--|--0--|--0--|-----|-----|
E|-----|--9--|--7--|--0--|-----|-----|-----|--7--|--9--|


Instrumental Passage:

      G      A5/F#      Em9       D    Cmaj7/G A(add4)   D
e|------------------------------------------------------------|
B|-------12---10-----8---7-----5-------5--5---------0---------|
G|------------9----------7--------7-------4---------2----2-2--|
D|----9-------7----7-----5---5----4-------5--------(5)---0-0--|
A|-10---------9---------------------5------------0------------|
E|-----------------------0----------------3---(3)-------------|

      D       G     A
e|-----------------------|
B|-----------------------|
G|--------7-----4------6-|
D|----4h7-----5------7---|
A|--5--------------------|
E|----------3------5-----|

     D       A5/C#    Gmaj7/B     A    Cmaj7/G  A(add4)   D
e|------------------------------------------------------------|
B|--------12--10-----8---7-----5------5---5---------0---------|
G|------------9----------7--------7-------4---------2----2-2--|
D|-----12-----7----------5---5----4-------5--------(5)---0-0--|
A|-----------------7--------------0-0------------0------------|
E|--10--------9----------7----------------3---(3)-------------|


      D       G     A
e|-----------------------|
B|-----------------------|
G|--------7-----4------6-|
D|----4h7-----5------7---|
A|--5--------------------|
E|----------3------5-----|

-Verse again
-Instrumental Passage again

'You Drifted Far Away...':

   Em (x4)   Em(M7)x4  Em7(x4)   Em6(x4)
e|---------|---------|---------|---------|
B|----8----|----8----|----8----|----8----|
G|----9----|----8----|----7----|----6----|
D|----9----|----9----|----9----|----9----|
A|---------|---------|---------|---------|
E|----0----|----0----|----0----|----0----|

   F#m7(x4)  B(x2)  C#m7   B/D#    Em(x4)   A(x2)
e|---------|-------|-----|------|---------|-------|-----|-----|
B|----10---|-------|-----|------|----8----|-------|-----|-----|
G|----9----|---6---|--9--|--11--|----9----|---6---|--7--|--9--|
D|----11---|---7---|--9--|--9---|----9----|---7---|--7--|--7--|
A|----9----|-------|-----|------|---------|---0---|-----|-----|
E|---------|---7---|--9--|--11--|----0----|-------|--7--|--9--|
 (Far away it seems...)         (Time has stopped...)

-Instrumental Passage again
-Verse again
-Verse with heavily exaggerated chords

Thats it. the end
Tap to rate this tab
 
# A B C D E F G H I J K L M N O P Q R S T U V W X Y Z