Song name
# A B C D E F G H I J K L M N O P Q R S T U V W X Y Z

Ben Folds - The Luckiest tab

Tuning is in Drop D. I will perfect it and try to get a video of it real soon.  This tab 
isn't the entire song note for note, but once you get this intro down, it's not hard to 
go from there. This is my first tab; hope you enjoy it!

Symbols:
~ Ring out (or at least hold for a second)

INTRO:
E|---2------------------2-------0~----------|
B|------3----3-------------3------2~--------|
G|-------2------4~----------2-------2~------|
D|--4-----0-0---5~-----4-----2-2~-----------|
A|-0------------------0-------0~------------|
D|0--------5---------0----------------------|

E|7--7---7-5--5---5-3--3---3-2--2-0----------|
B|--7---7----7---7----3---3----3--2----------|
G|-7---7----6---6----4---4----0---2----------|
D|--------------------0---0----2--2----------|
A|--9---9----4---4-----------0----0----------|
D|9---9----4---4----5---5--------------------|
Tap to rate this tab
# A B C D E F G H I J K L M N O P Q R S T U V W X Y Z