Song name
# A B C D E F G H I J K L M N O P Q R S T U V W X Y Z

Ben Gibbard - You Remind Me Of Home tab

Song: You Remind Me Of Home
Composer: Ben Gibbard
Tabbed By: Tom Martin (tpbmartin@googlemail.com)
Capo: 2nd fret
Tuning: Standard

This tab is based on the recorded version i have, it's a great song and a good one to
to the repertoire. The rhythms can be a bit tricky but listen to the record and play a
and after a bit of practice they get much easier. I'm pretty sure that this tab is 
but please send me amendments if i have it wrong.Enjoy!!!

(tab relative to the 2nd fret)

Ctab:

E|---0----0-|
B|---1----1-|
G|---0----0-|
D|---2----0-|
A|---3----3-|
e|---0----0-|


Intro:

      d d   u d u d u  d   u d u
E|----3-3---3-3-3-3-3--3---3-3-3-----|
B|----2-2---2-2-2-0-0-p2---2-2-2-----|
G|----0-0---0-0-0-0-0--0---0-0-0-----|    x2
D|----0-0---0-0-0-0-0--0---0-0-0-----|
A|----3-3---3-3-3-3-3--3---3-3-3-----|
e|----3-3---3-3-3-3-3--3---3-3-3-----|


THE SONG:

Intro

G		   Ctab   Am
You remind me of home   the paint cracks when the water leaks
 C						G
from the rusty pipes that are just beneath my feet.
 G		   D      Am
You remind me of home the heater's warm but fills the room with a
 C                        G     Intro
potpourri of dust and gas fumes.


 G		   Ctab   Am
You remind me of home   a broken bed with dirty sheets that creaks
 C                             G
when I am shifting in my sleep.
 G                 D	  Am
You remind me of home in a suburban town with nothing to do,
 C                                     G   intro
patiently waiting for something to happen.

  (continue rhythm)
E|---0----3----------------------------------|
B|---0----3------------------------------1-0-|
G|---0----0------------------2--0------------|
D|---2----0----------------0----------2------|
A|---2----2--------------2----------3--------|
e|---0----3----------------------------------|
  But the foundation is crumbling


  (continue rhythm)
E|---0----3-------------------------------|
B|---0----3----------------------------0--|
G|---0----0---------------2--0-------2----|
D|---2----0-------------0----------2------|
A|---2----2-----------2----------3--------|
e|---0----3-------------------------------|
     and becoming one with the ground

  (continue rhythm)
E|---0----3--------------------------------|
B|---0----3----------------------------1-0-|
G|---0----0----------------2--0------------|
D|---2----0--------------0----------2------|
A|---2----2------------2----------3--------|
e|---0----3--------------------------------|
  whilst you lay there in slumber...


  (continue rhythm)
E|---0----3-------------------------------|
B|---0----3----------------------------0--|
G|---0----0---------------2--0-------3----|
D|---2----0-------------0----------2------|      x3
A|---2----2-----------2----------3--------|
e|---0----3-------------------------------|
 You're wasting your life. Wasting your life.

  (continue rhythm)                    (continue rhythm)
E|---0----3---------------------------0----3--------------------------|
B|---0----3-----------------------0---0----3--------------------------|
G|---0----0----------2--0-------3-----0----0----------2--0-------3-0--|
D|---2----0--------0----------2-------2----0--------0----------2------|
A|---2----2------2----------3---------2----2------2----------3--------|
e|---0----3---------------------------0----3--------------------------|
                wasting your life                wasting your life


Intro

 G               Ctab    Am
You remind me of home   sitting on a thrift store couch,
 C			G (let ring)
I'm trying to get this all down


END
Tap to rate this tab
 
# A B C D E F G H I J K L M N O P Q R S T U V W X Y Z