Song name
# A B C D E F G H I J K L M N O P Q R S T U V W X Y Z

Ben Gibbard - They Dont Know tab

Intro/Verse

--------------------------------------|
-----------------6h7------------------|
---------------------6----------------|
-----------------------6--------------|
-------6------------------------------|
--------------------------------------|


Chorus
-6-6-6-6-6-6-6-6-6-|
-7-7-7-7-7-6-6-6-6-|
-6-6-6-6-6-6-6-6-6-|
-8-8-8-8-8-6-6-6-6-|
-6-6-6-6-6-6-6-6-6-|
-6-6-6-6-6-6-6-6-6-|

This is my first tab so please go easy on my!!!
I am going to try and put some toni tony tone tabs up to for all of you r&b fans !!!

http://www.jonbmusic.com/
Tap to rate this tab
 
# A B C D E F G H I J K L M N O P Q R S T U V W X Y Z