Song name
# A B C D E F G H I J K L M N O P Q R S T U V W X Y Z

Ben Gibbard - We Looked Like Giants Acoustic tab

We Looked like Giants (acoustic)

Capo on 2nd

E|--------------|--------------|---000000|-----------|
B|--------------|--------------|---010101|--1313-----|
G|--5p4---------|--5p4---------|---000000|--0000-----|
D|-----5\2p02---|-----5\2p02---|2--222222|--0000-----|
A|0-------------|0-------------|3--333333|2-22220h2h3|
E|--------------|--------------|---------|3-3333-----|


Am
god bless the daylight, the sugary smell of springtime
C
remembering when you were mine
G
in a still suburban town

Am
when every thursday i'd brave those mountain passes
C
and you'd skip your early classes
G
and we'd learn how our bodies worked

E|--------------|--------------|---000000|-----------|
B|--------------|--------------|---010101|--1313-----|
G|--5p4---------|--5p4---------|---000000|--0000-----|
D|-----5\2p02---|-----5\2p02---|2--222222|--0000-----|
A|0-------------|0-------------|3--333333|2-22220h2h3|
E|--------------|--------------|---------|3-3333-----|

Am
god damn the black night with all its foul temptations
C
i've become what i always hated
G
when i was with you then

Am
we looked like giants in the back of my grey subcompact
C
fumbling to make contact
G
as the others slept inside

Am
and together there
F
in a shroud of frost, the mountain air
G
began to pass from every pane of weathered glass

Am
and i held you closer
C                      F    E
than anyone would ever get

E|--------------|--------------|---000000|-----------|
B|--------------|--------------|---010101|--1313-----|
G|--5p4---------|--5p4---------|---000000|--0000-----|
D|-----5\2p02---|-----5\2p02---|2--222222|--0000-----|
A|0-------------|0-------------|3--333333|2-22220h2h3|
E|--------------|--------------|---------|3-3333-----|

(F*)		
E|0		
B|1
G|0
D|0
A|3
E|1

F* 					F* C F*
do you remember the JAMC?
F* 					F* C F*
and reading aloud from magazines
F* 										F* C F*
i don't know about you but i swear on my name they could smell it on me
F* 					F* C F*
i've never been too good with secrets
F* 					F* C F*

no…

F*
and together there
G
in a shroud of frost and mountain air
F*
began to pass through every pane of weathered glass
G
and i held you closer…
Tap to rate this tab
 
# A B C D E F G H I J K L M N O P Q R S T U V W X Y Z