Song name
# A B C D E F G H I J K L M N O P Q R S T U V W X Y Z

Ben Gibbard - 405 Acoustic tab

405 (Solo Acoustic)
Ben Gibbard
tabbed by malectro

This version doesn't sound great if you aren't singing along, but
it's exactly what he plays in the live recording. I added lyrics
to the tricky parts so that you can see where the syllables coincide
with certain notes.

Intro (also played after chorus)
[/5---5---5/7---7/10---10---|10\3---3---3---3---|]
[/3-3---3-----5------8----8-|-----1---1---1---1-|]
[---------------------------|-------------------|]
[---------------------------|-------------------|]
[---------------------------|-------------------|]
[---------------------------|-------------------|]

Verse
   I took          the four-o-five and drove...     center....
[----------------|----------------|----------------|----------------|
[--5---5---5---7-|--5--/5--/7--/8-|--5---5---5---5-|--3---3---3---3-|
[0---0---0---0---|0---0---0---0---|0---0---0---0---|0---0---0---0---|
[----------------|----------------|----------------|----------------|
[----------------|----------------|----------------|----------------|
[----------------|----------------|----------------|----------------|
 better...
[----------------|----------------|]
[--5---5---5---5-|----------------|]
[0---0---0---0---|----------------|]
[----------------|5-5-4-4-5-5-5/9-|]
[----------------|----------------|]
[----------------|----------------|]

Chorus
   you keep twist-ing the truu-uuu-uth
[----------------|----------------|----------------|----------------|]
[----------------|2---------------|--5---5---3---3-|--0---0---0---0-|]
[----------------|2---------------|----------------|----------------|]
[----------------|0---------------|0---0---0---0---|0---0---0---0---|]
[3---------------|0---------------|----------------|----------------|]
[----------------|----------------|----------------|----------------|]
Tap to rate this tab
# A B C D E F G H I J K L M N O P Q R S T U V W X Y Z