Song name
# A B C D E F G H I J K L M N O P Q R S T U V W X Y Z

Ben Gibbard - These Roads Dont Move tab

These Roads Don't Move by Ben Gibbard and Jay Farrar

Tabbed by: Jaxson A.
Email: deeplyinsane@hotmail.com

Tuning: Capo 2


Intro

   D
e|-2-2--2-00000-------|
B|-3-3--3-33333-------|
G|-2-2--2-22222-------| x2
D|--------------------|
A|--------------------|
E|--------------------|


All Verses

   D                  A      D           G       Em7    Em6
e|-2-222222222---------------2-222222222-----------------------------|
B|-3-333333333-3-3333-2-2222-3-333333333-3-3-3-3-3-3333-2-2222-------|
G|-2-222222222-2-2222-2-2222-2-222222222-0-0-0-0-0-0000-0-0000-------| x2
D|-------------2-2222-2-2222-------------0-0-0-0-2-2222-2-2222-------|
A|---------------------------------------2-2-x-x-2-2222-2-2222-------|
E|---------------------------------------3-3-2-2---------------------|


Chorus:

   Em             D         G
e|----------------2-2-2-22--3-33333-3-33333---------|
B|-0-0000--0-0000-3-3-3-33--0-00000-0-00000---------|
G|-0-0000--2-2222-2-2-2-22--0-00000-0-00000---------|
D|-2-2222--2-2222-----0-00--0-00000-0-00000---------|
A|-2-2222--0-0000-----4-44--2-22222-2-33333---------|
E|-0-0000--0-0000-----------3-33333-3-33333---------|


   Em               G       D
e|------------------3-33333-2-22222-----------------|
B|-0-00000--0-00000-0-00000-3-33333-----------------|
G|-0-00000--2-22222-0-00000-2-22222-----------------|
D|-2-22222--2-22222-0-00000-------------------------|
A|-2-22222--0-00000-2-22222-------------------------|
E|-0-00000--0-00000-3-33333-------------------------|


In-between Chorus and Verses:

   D
e|-2-2--2-00000-------|
B|-3-3--3-33333-------|
G|-2-2--2-22222-------| x2
D|--------------------|
A|--------------------|
E|--------------------|


 x  Mute note


Lyrics:

There is no need to say another word
We'll be golden and eternal just like that
Something good will come of all things yet
Simple golden eternity blessing all

These roads don't move
You're the one that moves
These roads don't move
You're the one that moves

Now get my ticket and say goodbye
Leave San Francisco behind
Go back home across autumn America
And it'll be all like it was in the beginning

These roads don't move
You're the one that moves
These roads don't move
You're the one that moves

All the dark torture is a memory
I do see my star still shining
For all those years looking out of jail and ship windows
The irrational mortal loneliness is always crowned

These roads don't move
You're the one that moves
These roads don't move
You're the one that moves
These roads don't move
You're the one that moves
Tap to rate this tab
 
# A B C D E F G H I J K L M N O P Q R S T U V W X Y Z