Song name
# A B C D E F G H I J K L M N O P Q R S T U V W X Y Z

Ben Gibbard - Title And Registration Acoustic tab

This is how Ben Gibbard plays it acoustically
Standard Tuning
Capo 2nd Fret
I figured this out through a live performance on youtube. Heres the link so you can 
out struming and how it goes along with the lyrics.
http://www.youtube.com/watch?v=-hZUEf1MfXc

Play on every Verse
e ||-------------------------|-----------------------------|
B ||--------0----0--0--0--0--|--0--0--0--0--0--0--0--0-----|
G ||*-------0----0--0--0--2--|--2--4--4--2--2--0--0--0-----|
D ||*--2----2----2--2--2--2--|--2--2--2--2--2--2--2--2-----|
A ||---3----3----3--3--3--3--|--3--3--3--3--3--3--3--3-----|
E ||-------------------------|-----------------------------|

------------------------|----------------------------------|
-------0----0--0--0--0--|--0--0--0--0--0--0--0--0----------|
-------0----0--0--0--2--|--2--4--4--2--2--0--0--0----------|
--2----2----2--2--2--2--|--2--2--2--2--2--2--2--2----------|
--0----0----0--0--0--0--|--0--0--0--0--0--0--0--0----------|
------------------------|----------------------------------|

Then He play an Em then he adds the 3rd fret on the B string than plays a regular Em 
then he add the first fret on the B string then plays it regular again, you do that at the 
of every verse

Chorus

--8--------3--------|--5--------8--------|--3--------5--------|
--8--------3--------|--5--------8--------|--3--------5--------|
--0--------0--------|--0--------0--------|--0--------0--------|
--0--------0--------|--0--------0--------|--0--------0--------|
--7--------2--------|--4--------7--------|--2--------4--------|
--8--------3--------|--5--------8--------|--3--------5--------|

--8--------3--------|--5--------8--------|--3--------5--------|
--8--------3--------|--5--------8--------|--3--------5--------|
--0--------0--------|--0--------0--------|--0--------0--------|
--0--------0--------|--0--------0--------|--0--------0--------|
--7--------2--------|--4--------7--------|--2--------4--------|
--8--------3--------|--5--------8--------|--3--------5--------|

Bridge

Em, C, Am with 3rd fret of B string, then he plays that again except he add the 3rd fret 
the e string instead of the B string on the Am. End on Em

Final Chorus
|--8--------3--------|--5--------8--------|
|--8--------3--------|--5--------8--------|
|--0--------0--------|--0--------0--------|
|--0--------0--------|--0--------0--------|
|--7--------2--------|--4--------7--------|
|--8--------3--------|--5--------8--------|

--3--------5--------|--8--------3--------|--5--------8--------|
--3--------5--------|--8--------3--------|--5--------8--------|
--0--------0--------|--0--------0--------|--0--------0--------|
--0--------0--------|--0--------0--------|--0--------0--------|
--2--------4--------|--7--------2--------|--4--------7--------|
--3--------5--------|--8--------3--------|--5--------8--------|

--3--------5--------|--8--------3--------|--5-----------------|
--3--------5--------|--8--------3--------|--5-----------------|
--0--------0--------|--0--------0--------|--0-----------------|
--0--------0--------|--0--------0--------|--0-----------------|
--2--------4--------|--7--------0--------|--4-----------------|
--3--------5--------|--8--------3--------|--5-----------------|


|---8--8--8--8--8--8--8--8--|--8--8--8--12--12--12--12--8--|
|---8--8--8--8--8--8--8--8--|--8--8--8---8---8---8---8--8--|
|*--0--0--0--0--0--0--0--0--|--0--0--0---0---0---0---0--0--|
|*--0--0--0--0--0--0--0--0--|--0--0--0---0---0---0---0--0--|
|---7--7--7--7--7--7--7--7--|--7--7--7---7---7---7---7--7--|
|---8--8--8--8--8--8--8--8--|--8--8--8---8---8---8---8--8--|

--8--8--8--8--8--8--8--8--|--8--8--8--8--8--8--8--8---||--8----------------||
--8--8--8--8--8--8--8--8--|--8--8--8--8--8--8--8--8---||--8----------------||
--0--0--0--0--0--0--0--0--|--0--0--0--7--7--7--7--0--*||--0----------------||
--0--0--0--0--0--0--0--0--|--0--0--0--7--7--7--7--0--*||--0----------------||
--7--7--7--7--7--7--7--7--|--7--7--7--0--0--0--0--7---||--7----------------||
--8--8--8--8--8--8--8--8--|--8--8--8--0--0--0--0--8---||--8----------------||
Tap to rate this tab
# A B C D E F G H I J K L M N O P Q R S T U V W X Y Z