Song name
# A B C D E F G H I J K L M N O P Q R S T U V W X Y Z

Ben Gibbard - When The Sun Goes Down tab

Song: When The Sun Goes Down
Artist: Ben Gibbard
Tuning: Standard (I'm assuming the tuning is standard don't quote me)
Tabbed by: tyler'
Capo: 2nd fret

This is my first tab i'm uploading! I've been trying to learn a lot of Ben Gibbards 
songs and didn't see a tab for this one.
The part i'm uploading is played in the intro and various verses, ill add more to the 
tab as I figure out more.

This song is finger picked, your thumb is hitting the bass notes and hammers ons and 
such. Other fingers are stroking the chords.


e|----2-----2-----0-----0-----0-----0------0-----0--------------------|
B|----3-----3-----3-----3-----3-----3------3-----3--------------------|
G|----2-----2-----2-----2-----0-----0------0-----0--------------------|
D|--0-----0-----0-----0-----------------------------------------------|
A|------------------------0h2-----2----0h2-----0----------------------|
E|--------------------------------------------------------------------|

e|----2-----2-----0-----0-----0-----0------0-----0--------------------|
B|----3-----3-----3-----3-----3-----3------3-----3--------------------|
G|----2-----2-----2-----2-----0-----0------0-----0--------------------|
D|--0-----0-----0-----0-----------------------------------------------|
A|------------------------0h2-----2----0h2----------------------------|
E|-------------------------------------------0h2----------------------|


| h   hammer-on

Post comments and stuff
Tap to rate this tab
 
# A B C D E F G H I J K L M N O P Q R S T U V W X Y Z