Song name
# A B C D E F G H I J K L M N O P Q R S T U V W X Y Z

Ben Gibbard - Williamine tab

I've been trying to find a good tab for this song, and I think I figured out
something decent. Hope you guys like it. I just posted the chords for you guys to
figure out the strum pattern.

Intro/Verses

E|-0---0--0-0--------------------|
B|-3---2--0-0--------------------|
G|-4---2--1-1--------------------|
D|-4---2--2-2--------------------|
A|-2---0--2-2--------------------|
E|-------------------------------|

Chorus

E|-0--2--0--3--0------------------|
B|-2--3--2--3--0------------------|
G|-2--2--2- 0--1------------------|
D|-2--0--2- 0--2------------------|
A|-0--0--0- 2--2------------------|
E|----------3---------------------|
Tap to rate this tab
# A B C D E F G H I J K L M N O P Q R S T U V W X Y Z