Song name
# A B C D E F G H I J K L M N O P Q R S T U V W X Y Z

Ben Gibbard - Carolina tab

e|--------------|     
B|-----11-------|           
G|----------12--|  G3        
D|----------12--|            
A|-10-----------|          
E|--------------|        

e|--------------|
B|--------------|
G|----------12--|
D|----------12--|  G2
A|-10-----------|
E|--------------|

e|--------------|
B|--------------|
G|----------12--|
D|----------12--|  D2
A|--------------|
E|-11-----------|

e|--------------|
B|--------------|
G|----------12--|  C2
D|----------12--| 
A|--------------|
E|---8----------|

e|--------------|
B|--------------|
G|----------12--|
D|----------12--|  D2
A|--------------|
E|-11-----------|
intro:
G3-G2-D2-C2-D2 2x

G2         D2
Tennessee, January
 C2         D2
Everything, ordinary
G2               D2        C2             D2
You're unlike anything I've seen
G2           D2        
Is this how I really feel?
C2                      D2
Or just another heart to steal
G2      D2           C2               D2
To fuel the song that's underneath

e|--------------|
B|------3-------|
G|--------------|
D|--------------| G
A|--------------|
E|---3----------|

e|--------------|
B|-------3------|
G|-2------------|
D|--------------| D
A|--------------|
E|--------------|

e|--------------|
B|--------3-----|
G|--------------|
D|---2----------| C
A|--------3-----|
E|--------------|

e|--------------|
B|---------3----|
G|--------------|
D|----2---------| Em
A|----2---------|
E|--------------|

e|--------------|
B|--------5-----|
G|--------------|
D|---4----------| C3
A|--------5-----|
E|--------------|

e|--------------|
B|--3-----------|
G|--------------|
D|------4-------| C4
A|----------5---|
E|--------------|

CHORUS:
G-D-C-D3x  Em-D-C     
Carolina, you will have to forgive me    
Carolina, this is just my tendancy (Forgive me)

G2-D2-C2-D2
I pass another day wasting
Thoughts on what's ahead asking
What if and why not and who's to say?
When all I really know of you
Is you're just as lonely too
'cause desperate hearts are hearts that need someone

Chorus:
G-D-C-D3x  Em-D-C     
Carolina, you will have to forgive me    
Carolina, this is just my tendancy

BRIDGE:
C2-C3 4x (end with) C4
I'm careless sometimes
I'm sure that you'll find
But that's now how
I want to live my life
I wanna to be sure
But don't know how to
How hard I try


Chorus:
G2-D2-C2-D2 2x G-D-C-D Em-D-C     
Carolina, you will have to forgive me    
Carolina, this is just my tendancy


G-D-C-D3x  Em-D-C     
Carolina, you will have to forgive me    
Carolina, this is just my tendancy


This is my first Tab...im only 15..years old ..
...wish you enjoy...i hope this are right..Goodluck..

my Friendster..is CJLB_Liz223@yahoo.com
...Add me..thankz












Tap to rate this tab
# A B C D E F G H I J K L M N O P Q R S T U V W X Y Z