Song name
# A B C D E F G H I J K L M N O P Q R S T U V W X Y Z

Ben Gibbard - Hometown Fantasy tab

-------------------------------------------------------------------------------
			 Hometown Fantasy - Andrew Kenny
-------------------------------------------------------------------------------
Tabbed by: malectro
Email: malectro@gmail.com

Tuning: standard

strum this one down and up and catch the starting with the first actual
chord. the first pluck should break rythm intentionally.

the song form goes like this...

intro, vocals, intro, vocals, intro, vocals, vocals2, vocals, intro, vocals
repeat

   intro
   C
e|---0--0-0-0--0--0-0---|
B|---1--1-1-0--0--0-0---|
G|---0--0-0-0--0--0-0-x2|
D|---2--2-2-2--2--2-2---|
A|-3-3--3-3-3--3--3-3---|
E|---0--0-0-0--0--0-0---|

   vocals
   C                    F        G
e|---0--0-0-0--0--0-0-|-------------------|
B|---1--1-1-0--0--0-0-|---0--0-0---0--0-0-|
G|---0--0-0-0--0--0-0-|---0--0-0---0--0-0-|
D|---2--2-2-2--2--2-2-|---3--3-3---5--5-5-|
A|-3-3--3-3-3--3--3-3-|-3-3--3-3-5-5--5-5-|
E|---0--0-0-0--0--0-0-|-1-1--1-1-3-3--3-3-|

   vocals2
   a                        F        G
e|---0-0--0-0-0-0-0-0-0-0-|-------------------|
B|---1-1--1-1-1-1-1-1-1-0-|---0--0-0---0--0-0-|
G|---2-2--2-2-2-2-2-2-2-2-|---0--0-0---0--0-0-|
D|---2-2--2-2-2-2-2-2-2-2-|---3--3-3---5--5-5-|
A|-0-0-0--0-0-0-0-0-0-0-0-|-3-3--3-3-5-5--5-5-|
E|---0-0--0-0-0-0-0-0-0-0-|-1-1--1-1-3-3--3-3-|

this song is super easy, simple, and fun. i love the lyrics. enjoy


| /  slide up
| \  slide down
| h  hammer-on
| p  pull-off
| ~  vibrato
| +  harmonic
| x  Mute note
===============================================================================
Tap to rate this tab
# A B C D E F G H I J K L M N O P Q R S T U V W X Y Z