Song name
# A B C D E F G H I J K L M N O P Q R S T U V W X Y Z

Ben Gibbard - Movie Script Ending tab

Help us improve GuitareTab! Take a short survey!
Movie Script Ending (Solo Acoustic)
Ben Gibbard
tabbed by malectro


Verse
Whenever I come back...
[----------------|----------------|----------------|----------------|]
[----------------|----------------|----------------|----------------|]
[------2---------|----------------|----------------|----------------|]
[--2-------2---2-|------0-------0-|------0-------0-|------0-------0-|]
[4---4---4---4---|--0-------0-----|--5-------5-----|--4-------4-----|]
[----------------|2---2---2---2---|5---5---5---5---|5---5---5---5---|]

Chorus
Passing through...
[----------------|----------------|----------------|----------------|
[------3-------3-|------2-------2-|------3-------3-|------3-------3-|
[--2-------2-----|--2-------2-----|--2-------2-----|--2-------2-----|
[4---4---4---4---|2---2---2---2---|4---4---4---4---|2---2---2---2---|
[----------------|----------------|----------------|----------------|
[----------------|----------------|----------------|----------------|

the highway...
[----------------|----------------|----------------|----------------|]
[3-3-x-x-2-2-x-x-|3-3-x-x-2-2-x-x-|3-3-x-x-2-2-x-x-|3-3-x-x-2-2-x-x-|]
[2-2-x-x-2-2-x-x-|2-2-x-x-2-2-x-x-|2-2-x-x-2-2-x-x-|2-2-x-x-2-2-x-x-|]
[0-0-x-x-0-0-x-x-|0-0-x-x-0-0-x-x-|0-0-x-x-0-0-x-x-|0-0-x-x-0-0-x-x-|]
[0-0-x-x-0-0-x-x-|0-0-x-x-0-0-x-x-|0-0-x-x-0-0-x-x-|0-0-x-x-0-0-x-x-|]
[----------------|----------------|----------------|----------------|]

Bridge
And now we all know...
[---------------0-|-------------------|]
[-----------------|------4------------|]
[----2---2-2h4p2--|--2-------2---2h4p2|]
[0-0---0----------|0---0---0---0------|]
[-----------------|-------------------|]
[-----------------|-------------------|]

I'll put them to bed...
[---------------0-|----------------|----------------|----|]
[-----------------|------4-------3-|------2-------1-|----|]
[----2---2-2h4p2--|--2-------2-----|--2-------2-----|----|]
[0-0---0----------|0---0---0---0---|0---0---0---0---|----|]
[-----------------|----------------|----------------|----|]
[-----------------|----------------|----------------|0---|]
Related for Movie Script Ending tab