Song name
# A B C D E F G H I J K L M N O P Q R S T U V W X Y Z

Ben Gibbard - Line Of Best Fit Acoustic tab

tabbed by jason moon

Line of Best Fit (Home Album)
Tuning- drop D

Intro
Guitar 1
e-----------------------------------|
B-----------------------------------|
G----------14-----------14----------|
D-----------------------------------|
A-----12------12---12---------------|
D---0----0-------0----0-------------|

Guitar 2
e--------------------------------------------------|
B--------------------------------------------------|
G--14--11--9---11--6---7---9-7-6-7-6-7-9-----------|
D--------------------------------------------------|
A--12--9---7---9---4---5---7-5-4-5-4-5-------------|
D--0---0---0---0---0---0---0-0-0-0-0-0-------------|

Verse
	(These things take my…)
e--------------------------------------------------|
B--------------------------------------------------|
G--14--11--9---11--6---7---9-6-7-9-----------------|
D--------------------------------------------------|
A--12--9---7---9---4---5---7-5-4-5-----------------|
D--0---0---0---0---0---0---0-0-0-0-----------------|

Chorus
	(Can’t escape this…)
e----------------------------------------------------|
B---------------------------------------7-7-7-5-5-5--|
G---7-7-7-7-7-7-7-7-7-7-7-7-6-6-6-6-6-6-6-6-6-6-6-6--|
D---5-5-5-5-5-5-5-5-5-5-5-5-4-4-4-4-4-4-4-4-4-4-4-4--|
A---5-5-5-5-5-5-5-5-5-5-5-5-4-4-4-4-4-4-4-4-4-4-4-4--|
D---5-5-5-5-5-5-5-5-5-5-5-5-4-4-4-4-4-4-4-4-4-4-4-4--|

Outro
e-----------------------------------------------------------------------|
B-----------------------------------------------------------------------|
G—-7/11-11-7/9-9-7/11-117/6-6-6-7-7-7-7-9-9-9-9-11-11-11-11-------------|
D----------------------------5-5-5-5-7-7-7-7-9-9-9-9--------------------|
A—-5/9-9-5/7-7-5/9-9-5/4-4-4-5-5-5-5-7-7-7-7-9-9-9-9-2-4-2-2-0-0--------|
D--0-0-0-0-0-0-0-0-0-0-0-0-0-5-5-5-5-7-7-7-7-9-9-9-9-2-4-2-2-0-0--------|
Tap to rate this tab
# A B C D E F G H I J K L M N O P Q R S T U V W X Y Z