Song name
# A B C D E F G H I J K L M N O P Q R S T U V W X Y Z

Ben Harper - Walk Away tab

                                  Walk Away

This is my tab of Walk Away from Ben Harper. any questions or comments, please either 
to this tab or email me @ travis_cobb@musician.org. Enjoy!!!!

                                                                      Ben Harper
Track 1


E||-------------3------3--|-------------3------3--|-------------3------3--|
B||-------------3------3--|-------------3------3--|-------------3------3--|
G||-----------------------|-----------------------|-----------------------|
D||-----------------------|-----------------------|-----------------------|
A||-----------------------|-----------------------|-----------------------|
E||--3-----3-----------3--|--2-----2-----------2--|--0-----0-----------0--|

---------------3------3--|-------------3------3--|-------------3------3--|
---------------3------3--|-------------3------3--|-------------3------3--|
-------------------------|-----------------------|-----------------------|
-------------------------|-----------------------|-----------------------|
-------------------------|-----------------------|-----------------------|
--0--2----2-----------2--|--3-----3-----------3--|--2-----2-----------2--|


-------------3------3--|---------------------|-------------3------3--|
-------------3------3--|---------------------|-------------3------3--|
-----------------------|---------------------|-----------------------|
-----------------------|---------------------|-----------------------|
-----------------------|---------------------|-----------------------|
--0-----0--------------|--0--2---------------|--3-----3-----------3--|

-------------3------3--|-------------3------3--|---------------3------3--|
-------------3------3--|-------------3------3--|---------------3------3--|
-----------------------|-----------------------|-------------------------|
-----------------------|-----------------------|-------------------------|
-----------------------|-----------------------|-------------------------|
--2-----2-----------2--|--0-----0-----------0--|--0--2----2-----------2--|

-------------3------3--|-------------3------3--|-------------3------3--|
-------------3------3--|-------------3------3--|-------------3------3--|
-----------------------|-----------------------|-----------------------|
-----------------------|-----------------------|-----------------------|
-----------------------|-----------------------|-----------------------|
--3-----3-----------3--|--2-----2-----------2--|--0-----0-----------0--|

---------------3------3--|-------------3------3--|-------------3------3--|
---------------3------3--|-------------3------3--|-------------3------3--|
-------------------------|-----------------------|-----------------------|
-------------------------|-----------------------|-----------------------|
-------------------------|-----------------------|-----------------------|
--0--2----2-----------2--|--3-----3-----------3--|--2-----2-----------2--|

-------------3------3--|---------------3------3--|-------------3------3--|
-------------3------3--|---------------3------3--|-------------3------3--|
-----------------------|-------------------------|-----------------------|
-----------------------|-------------------------|-----------------------|
-----------------------|-------------------------|-----------------------|
--0-----0-----------0--|--0--2----2-----------2--|--3-----3-----------3--|

-------------3------3--|-------------3------3--|---------------3------3--|
-------------3------3--|-------------3------3--|---------------3------3--|
-----------------------|-----------------------|-------------------------|
-----------------------|-----------------------|-------------------------|
-----------------------|-----------------------|-------------------------|
--2-----2-----------2--|--0-----0-----------0--|--0--2----2-----------2--|

-------------3------3--|-------------3------3--|-------------3------3--|
-------------3------3--|-------------3------3--|-------------3------3--|
-----------------------|-----------------------|-----------------------|
-----------------------|-----------------------|-----------------------|
--3-----3--------------|--2-----2--------------|--0-----0--------------|
-----------------------|-----------------------|-----------------------|


-------------3------3--|-------------3------3--|-------------3------3--|
-------------3------3--|-------------3------3--|-------------3------3--|
-----------------------|-----------------------|-----------------------|
-----------------------|-----------------------|-----------------------|
-----------------------|--3-----3--------------|--2-----2--------------|
--3-----3--------------|-----------------------|-----------------------|


-------------3------3--|-------------3------3--|-------------3------3--|
-------------3------3--|-------------3------3--|-------------3------3--|
-----------------------|-----------------------|-----------------------|
-----------------------|-----------------------|-----------------------|
--0-----0--------------|-----------------------|--3-----3--------------|
-----------------------|--3-----3--------------|-----------------------|

-------------3------3--|-------------3------3--|-------------3------3--|
-------------3------3--|-------------3------3--|-------------3------3--|
-----------------------|-----------------------|-----------------------|
-----------------------|-----------------------|-----------------------|
--2-----2--------------|--0-----0--------------|-----------------------|
-----------------------|-----------------------|--0--2--2--------------|

-------------3------3--|-------------3------3--|-------------3------3--|
-------------3------3--|-------------3------3--|-------------3------3--|
-----------------------|-----------------------|-----------------------|
-----------------------|-----------------------|-----------------------|
-----------------------|-----------------------|-----------------------|
--3-----3-----------3--|--2-----2-----------2--|--0-----0-----------0--|


---------------3------3--|-------------3------3--|-------------3------3--|
---------------3------3--|-------------3------3--|-------------3------3--|
-------------------------|-----------------------|-----------------------|
-------------------------|-----------------------|-----------------------|
-------------------------|-----------------------|-----------------------|
--0--2----2-----------2--|--3-----3-----------3--|--2-----2-----------2--|

-------------3------3--|---------------3------3--|-------------3------3--|
-------------3------3--|---------------3------3--|-------------3------3--|
-----------------------|-------------------------|-----------------------|
-----------------------|-------------------------|-----------------------|
-----------------------|-------------------------|-----------------------|
--0-----0-----------0--|--0--2----2-----------2--|--3-----3-----------3--|

-------------3------3--|-------------3------3--|---------------3------3--|
-------------3------3--|-------------3------3--|---------------3------3--|
-----------------------|-----------------------|-------------------------|
-----------------------|-----------------------|-------------------------|
-----------------------|-----------------------|-------------------------|
--2-----2-----------2--|--0-----0-----------0--|--0--2----2-----------2--|

-------------3------3--|-------------3------3--|-------------3------3--|
-------------3------3--|-------------3------3--|-------------3------3--|
-----------------------|-----------------------|-----------------------|
-----------------------|-----------------------|-----------------------|
-----------------------|-----------------------|-----------------------|
--3-----3-----------3--|--2-----2-----------2--|--0-----0-----------0--|

---------------3------3--|-------------3------3--|-------------3------3--|
---------------3------3--|-------------3------3--|-------------3------3--|
-------------------------|-----------------------|-----------------------|
-------------------------|-----------------------|-----------------------|
-------------------------|--3-----3--------------|--2-----2--------------|
--0--2----2-----------2--|-----------------------|-----------------------|

-------------3------3--|-------------3------3--|-------------3------3--|
-------------3------3--|-------------3------3--|-------------3------3--|
-----------------------|-----------------------|-----------------------|
-----------------------|-----------------------|-----------------------|
--0-----0--------------|-----------------------|--3-----3--------------|
-----------------------|--3-----3--------------|-----------------------|

-------------3------3--|-------------3------3--|-------------3------3--|
-------------3------3--|-------------3------3--|-------------3------3--|
-----------------------|-----------------------|-----------------------|
-----------------------|-----------------------|-----------------------|
--2-----2--------------|--0-----0--------------|-----------------------|
-----------------------|-----------------------|--3-----3--------------|

-------------3------3--|-------------3------3--|-------------3------3--|
-------------3------3--|-------------3------3--|-------------3------3--|
-----------------------|-----------------------|-----------------------|
-----------------------|-----------------------|-----------------------|
--3-----3--------------|--2-----2--------------|--0-----0--------------|
-----------------------|-----------------------|-----------------------|

-------------3------3--|-------------0------0--|-----------------------|
-------------3------3--|-------------1------1--|-------------0------0--|
-----------------------|-------------2------2--|-------------0------0--|
-----------------------|-----------------------|-------------2------2--|
-----------------------|--0-----0--------------|-----------------------|
--0--2--2--------------|-----------------------|--0-----0--------------|

-------------3------3--|-----------------------|-------------0------0--|
-------------3------3--|-----------------------|-------------1------1--|
-------------4------4--|-------------2------0--|-------------2------2--|
-------------5------5--|-------------4------0--|-----------------------|
-----------------------|--0-----0----5---------|--0-----0--------------|
--3-----3--------------|-----------------------|-----------------------|

-----------------------|-------------3------3--|-----------------------|
-------------0------0--|-------------3------3--|-----------------------|
-------------0------0--|-------------4------4--|-------------2------0--|
-------------2------2--|-------------5------5--|-------------4------0--|
-----------------------|-----------------------|--0-----0----5---------|
--0-----0--------------|--3-----3--------------|-----------------------|


-------------0------0--|-----------------------|-------------3------3--|
-------------1------1--|-------------0------0--|-------------3------3--|
-------------2------2--|-------------0------0--|-------------4------4--|
-----------------------|-------------2------2--|-------------5------5--|
--0-----0--------------|-----------------------|-----------------------|
-----------------------|--0-----0--------------|--3-----3--------------|

-----------------------|-------------0------0--|-----------------------|
-----------------------|-------------1------1--|-------------0------0--|
-------------2------0--|-------------2------2--|-------------0------0--|
-------------4------0--|-----------------------|-------------2------2--|
--0-----0----5---------|--0-----0--------------|-----------------------|
-----------------------|-----------------------|--0-----0--------------|


-------------3------3--|-------------3------3--|-------------3------3--|
-------------3------3--|-------------3------3--|-------------3------3--|
-------------4------4--|-------------4------4--|-----------------------|
-------------5------5--|-------------5------5--|-----------------------|
-----------------------|-----------------------|-----------------------|
--3-----3--------------|--3-----3--------------|--3-----3-----------3--|

-------------3------3--|-------------3------3--|---------------3------3--|
-------------3------3--|-------------3------3--|---------------3------3--|
-----------------------|-----------------------|-------------------------|
-----------------------|-----------------------|-------------------------|
-----------------------|-----------------------|-------------------------|
--2-----2-----------2--|--0-----0-----------0--|--0--2----2-----------2--|

-------------3------3--|-------------3------3--|-------------3------3--|
-------------3------3--|-------------3------3--|-------------3------3--|
-----------------------|-----------------------|-----------------------|
-----------------------|-----------------------|-----------------------|
-----------------------|-----------------------|-----------------------|
--3-----3-----------3--|--2-----2-----------2--|--0-----0-----------0--|

---------------3------3--|-------------3------3--|-------------3------3--|
---------------3------3--|-------------3------3--|-------------3------3--|
-------------------------|-----------------------|-----------------------|
-------------------------|-----------------------|-----------------------|
-------------------------|-----------------------|-----------------------|
--0--2----2-----------2--|--3-----3-----------3--|--2-----2-----------2--|

-------------3------3--|---------------3------3--|-------------3------3--|
-------------3------3--|---------------3------3--|-------------3------3--|
-----------------------|-------------------------|-----------------------|
-----------------------|-------------------------|-----------------------|
-----------------------|-------------------------|-----------------------|
--0-----0-----------0--|--0--2----2-----------2--|--3-----3-----------3--|

-------------3------3--|-------------3------3--|---------------3------3--|
-------------3------3--|-------------3------3--|---------------3------3--|
-----------------------|-----------------------|-------------------------|
-----------------------|-----------------------|-------------------------|
-----------------------|-----------------------|-------------------------|
--2-----2-----------2--|--0-----0-----------0--|--0--2----2-----------2--|

-------------3------3--|-------------3------3--|-------------3------3--|
-------------3------3--|-------------3------3--|-------------3------3--|
-----------------------|-----------------------|-----------------------|
-----------------------|-----------------------|-----------------------|
-----------------------|-----------------------|-----------------------|
--3-----3-----------3--|--2-----2-----------2--|--0-----0-----------0--|

---------------3------3--|-------------3------3--|-------------3------3--|
---------------3------3--|-------------3------3--|-------------3------3--|
-------------------------|-----------------------|-----------------------|
-------------------------|-----------------------|-----------------------|
-------------------------|--3-----3--------------|--2-----2--------------|
--0--2----2-----------2--|-----------------------|-----------------------|

-------------3------3--|-------------3------3--|-------------3------3--|
-------------3------3--|-------------3------3--|-------------3------3--|
-----------------------|-----------------------|-----------------------|
-----------------------|-----------------------|-----------------------|
--0-----0--------------|-----------------------|--3-----3--------------|
-----------------------|--3-----3--------------|-----------------------|

-------------3------3--|-------------3------3--|-------------3------3--|
-------------3------3--|-------------3------3--|-------------3------3--|
-----------------------|-----------------------|-----------------------|
-----------------------|-----------------------|-----------------------|
--2-----2--------------|--0-----0--------------|-----------------------|
-----------------------|-----------------------|--3-----3--------------|

-------------3------3--|-------------3------3--|-------------3------3--|
-------------3------3--|-------------3------3--|-------------3------3--|
-----------------------|-----------------------|-----------------------|
-----------------------|-----------------------|-----------------------|
--3-----3--------------|--2-----2--------------|--0-----0--------------|
-----------------------|-----------------------|-----------------------|

-------------3------3--|-------------3------3--|-------------3------3--|
-------------3------3--|-------------3------3--|-------------3------3--|
-----------------------|-----------------------|-----------------------|
-----------------------|-----------------------|-----------------------|
-----------------------|--3-----3--------------|--2-----2--------------|
--3-----3--------------|-----------------------|-----------------------|

-------------3------3--|-------------3------3--|-------------3------3--|
-------------3------3--|-------------3------3--|-------------3------3--|
-----------------------|-----------------------|-----------------------|
-----------------------|-----------------------|-----------------------|
--0-----0--------------|-----------------------|-----------------------|
-----------------------|--3-----3--------------|--3-----3-----------3--|

-------------3------3--|-------------3------3--|---------------3------3--|
-------------3------3--|-------------3------3--|---------------3------3--|
-----------------------|-----------------------|-------------------------|
-----------------------|-----------------------|-------------------------|
-----------------------|-----------------------|-------------------------|
--2-----2-----------2--|--0-----0-----------0--|--0--2----2-----------2--|

-------------3------3--|-------------3------3--|-------------3------3--|
-------------3------3--|-------------3------3--|-------------3------3--|
-----------------------|-----------------------|-----------------------|
-----------------------|-----------------------|-----------------------|
-----------------------|-----------------------|-----------------------|
--3-----3-----------3--|--2-----2-----------2--|--0-----0-----------0--|

---------------3------3--||
---------------3------3--||
-------------------------||
-------------------------||
-------------------------||
--0--2----2-----------2--||
Tap to rate this tab
# A B C D E F G H I J K L M N O P Q R S T U V W X Y Z