Song name
# A B C D E F G H I J K L M N O P Q R S T U V W X Y Z

Ben Harper - Not Fire Not Ice tab

Help us improve GuitareTab! Take a short survey!
Intro:
 |   |   |    |   |   |    |   |   |    |   |   |    
|------------|------------|------------|------------|
|----1---1---|------------|----1---1---|------------|
|----0---0---|------------|----0---0---|------------|
|------------|------------|------------|------------|
|3-----------|------------|3-----------|------------|
|------------|1-----------|------------|1-----------


Part A:
 |   |   |    |   |   |    |   |   |    |   |   |    
|------------|------------|------------|------------|
|----1---1---|----1---1---|----1---1---|----1---1---|
|----0---0---|----2---2---|----0---0---|----0---0---|
|------------|------------|------------|0h2---------|
|3-----------|------------|3-----------|------------|
|------------|1-----------|------------|------------|
There   is   not     a    river   wide,

Part B:
 |   |   |    |   |   |    |   |   |    |   |   |    
|------------|------------|------------|------------|
|----1---1---|----1---1---|----0---1---|----1---1---|
|----0---0---|----2---2---|----0---0---|----2---0---|
|------------|------------|------------|------------|
|3-----------|------------|------------|------------|
|------------|1-----------|3-----------|1-----------|
 Not a        moun-tain    high------------------,


Part A 4x
 |   |   |    |   |   |    |   |   |    |   |   |    
|------------|------------|------------|------------|
|----1---1---|----1---1---|----1---1---|----1---1---|
|----0---0---|----2---2---|----0---0---|----0---0---|
|------------|------------|------------|0h2---------|
|3-----------|------------|3-----------|------------|
|------------|1-----------|------------|------------|
And neither sin nor evil
  Could change how I feel inside
  Could change how I feel inside
  Not all the strength of the ocean



Part B:
|   |   |    |   |   |    |   |   |    |   |   |    
|------------|------------|------------|------------|
|----1---1---|----1---1---|----0---1---|----1---1---|
|----0---0---|----2---2---|----0---0---|----2---0---|
|------------|------------|------------|------------|
|3-----------|------------|------------|------------|
|------------|1-----------|3-----------|1-----------|
Not all the heat from the sun, from the sun


Part C:
    |   |   |    |   |   |    |   |   |    |   |   |    
  |------------|------------|------------|------------|
  |----1---1---|----1---1---|----1-------|----1---1---|
  |----0---0---|----2---2---|----0-------|----2---0---|
  |------------|------------|------------|------------|
  |3-----------|------------|3-----------|2-0---------|
  |------------|1-----------|------------|------------|
No others have  tried     I just can't   de-ny

Part A 2x
 |   |   |    |   |   |    |   |   |    |   |   |    
|------------|------------|------------|------------|
|----1---1---|----1---1---|----1---1---|----1---1---|
|----0---0---|----2---2---|----0---0---|----0---0---|
|------------|------------|------------|0h2---------|
|3-----------|------------|3-----------|------------|
|------------|1-----------|------------|------------|
For me you are the one
  For me you are the one



Part D 2x:
      |   |   |    |   |   |    |   |   |    |   |   |    
     |------------|------------|------------|------------|
     |----1---1---|----0---0---|----1---1---|----1---1---|
     |----2---2---|----0---0---|----0---0---|----0---0---|
     |------------|------------|------------|0h2---------|
     |------------|------------|3-----------|------------|
     |1-----------|3-----------|------------|------------|
But  true          love   is    priceless,

 |   |   |    |   |   |    |   |   |    |   |   |    
     |------------|------------|------------|------------|
     |----1---1---|----0---0---|----1---1---|----1---1---|
     |----2---2---|----0---0---|----0---0---|----0---0---|
     |------------|------------|------------|0h2---------|
     |------------|------------|3-----------|------------|
     |1-----------|3-----------|------------|------------|
For  true love you pay-ay-ay  a price

Part E:
            |   |   |    |   |   |    |   |   |       
           |------------|------------|------------|
           |----1---1---|----0---0---|----1---1---|
           |----2---2---|----0---0---|----2---2---|
           |------------|------------|------------|
           |------------|------------|0-----------|
           |1-----------|3-----------|------------|
But there's nothing can  keep me from loving  you      

 |   |   |    |   |   |    |   |   |    |   |   |
|------------|------------|------------|------------|
|----1---1---|----1---1---|----1---1---|----1---1---|
|----0---0---|----0---0---|----2---2---|----0---0---|
|------------|------------|------------|------------|
|2-----------|3-----------|------------|3-----------|
|------------|------------|1-----------|------------|
        Not   fire         no, not      ice         

 |   |   |    |   |   |    |   |   |    
|------------|------------|------------|
|----1---1---|----1---1---|----0---0---|
|----0---0---|----0---0---|----0---0---|
|0h2---------|------------|------------|
|------------|3-----------|------------|
|------------|------------|3-----------|
         Not  fire         no  not
 
 |   |   |    |   |   |    |   |   |    
|------------|(play softly)|------------|
|----1---1---|--------1----|1-----------|
|----0---0---|--------0----|0-----------|
|------------|-------------|------------|
|3-----------|----3--------|------------|
|------------|1------------|----1-------|
 ice.



Part A:
 |   |   |    |   |   |    |   |   |    |   |   |    
|------------|------------|------------|------------|
|----1---1---|----1---1---|----1---1---|----1---1---|
|----0---0---|----2---2---|----0---0---|----0---0---|
|------------|------------|------------|0h2---------|
|3-----------|------------|3-----------|------------|
|------------|1-----------|------------|------------|
 Like  a    hero   or     the   champion

Part B:
 |   |   |    |   |   |    |   |   |    |   |   |    
|------------|------------|------------|------------|
|----1---1---|----1---1---|----0---1---|----1---1---|
|----0---0---|----2---2---|----0---0---|----2---0---|
|------------|------------|------------|------------|
|3-----------|------------|------------|------------|
|------------|1-----------|3-----------|1-----------|
 You are the best,   you're the best---


Part A 4x
 |   |   |    |   |   |    |   |   |    |   |   |    
|------------|------------|------------|------------|
|----1---1---|----1---1---|----1---1---|----1---1---|
|----0---0---|----2---2---|----0---0---|----0---0---|
|------------|------------|------------|0h2---------|
|3-----------|------------|3-----------|------------|
|------------|1-----------|------------|------------|
  Like religion   or      superstition
  With  you  I    am      blessed
  With  you  I    am      blessed
  Now the river  may  grow   wider



Part B:
|   |   |    |   |   |    |   |   |    |   |   |    
|------------|------------|------------|------------|
|----1---1---|----1---1---|----0---1---|----1---1---|
|----0---0---|----2---2---|----0---0---|----2---0---|
|------------|------------|------------|------------|
|3-----------|------------|------------|------------|
|------------|1-----------|3-----------|1-----------|
 The mountains  may reach past  the sky

Part C:
    |   |   |    |   |   |    |   |   |    |   |   |    
  |------------|------------|------------|------------|
  |----1---1---|----1---1---|----1-------|----1---1---|
  |----0---0---|----2---2---|----0-------|----2---0---|
  |------------|------------|------------|------------|
  |3-----------|------------|3-----------|2-0---------|
  |------------|1-----------|------------|------------|
No others have  tried     I just can't   de-ny

Part A 2x
 |   |   |    |   |   |    |   |   |    |   |   |    
|------------|------------|------------|------------|
|----1---1---|----1---1---|----1---1---|----1---1---|
|----0---0---|----2---2---|----0---0---|----0---0---|
|------------|------------|------------|0h2---------|
|3-----------|------------|3-----------|------------|
|------------|1-----------|------------|------------|

 My love    shall     never     die
  My love   shall     never     die


Part D 2x:
      |   |   |    |   |   |    |   |   |    |   |   |    
     |------------|------------|------------|------------|
     |----1---1---|----0---0---|----1---1---|----1---1---|
     |----2---2---|----0---0---|----0---0---|----0---0---|
     |------------|------------|------------|0h2---------|
     |------------|------------|3-----------|------------|
     |1-----------|3-----------|------------|------------|
      But true love is  give    and take
  

     |    |   |    |   |   |    |   |   |    |   |   |    
     |------------|------------|------------|------------|
     |----1---1---|----0---0---|----1---1---|----1---1---|
     |----2---2---|----0---0---|----0---0---|----0---0---|
     |------------|------------|------------|0h2---------|
     |------------|------------|3-----------|------------|
     |1-----------|3-----------|------------|------------|
      True   love   is    sacrifice


Part E:
            |   |   |    |   |   |    |   |   |       
           |------------|------------|------------|
           |----1---1---|----0---0---|----1---1---|
           |----2---2---|----0---0---|----2---2---|
           |------------|------------|------------|
           |------------|------------|0-----------|
           |1-----------|3-----------|------------|
But there's nothing can  keep me from loving  you      

 |   |   |    |   |   |    |   |   |    |   |   |
|------------|------------|------------|------------|
|----1---1---|----1---1---|----1---1---|----1---1---|
|----0---0---|----0---0---|----2---2---|----0---0---|
|------------|------------|------------|------------|
|2-----------|3-----------|------------|3-----------|
|------------|------------|1-----------|------------|
        Not   fire         no, not      ice         

 |   |   |    |   |   |    |   |   |    
|------------|------------|------------|
|----1---1---|----1---1---|----0---0---|
|----0---0---|----0---0---|----0---0---|
|0h2---------|------------|------------|
|------------|3-----------|------------|
|------------|------------|3-----------|
         Not  fire         no  not
 
 |   |   |    |   |   |    |   |   |    
|------------|(play softly)|------------|
|----1---1---|--------1----|1-----------|
|----0---0---|--------0----|0-----------|
|------------|-------------|------------|
|3-----------|----3--------|------------|
|------------|1------------|----1-------|
 ice.
Related for Not Fire Not Ice tab