Song name
# A B C D E F G H I J K L M N O P Q R S T U V W X Y Z

Ben Harper - The Drugs Dont Work tab

Eddie is tabbing again. Here is a great song bye benny so cool.*

standard tunning

Tab: The drugs don't work

                                   
E||-----------3-------3--|----3-------3---------|
B||-----------1-------1--|----1-------1---------|
G||-----------0-------0--|----0-------0---------|
D||-----------2----2--2--|----2-------2----0----|
A||--3--------3----3--3--|----3--3----3----3----|
E||----------------------|----------------------|


                                                  
----------3--3----3--3--|------------------------|
----------1--1----1--1--|-------1--1-------1--1--|
----------0--0----0--0--|-------0--0-------0--0--|
--0h-2----2--2----2--2--|--2----2--2--0----0--0--|
--3--3----3--3----3--3--|--3----------2----------|
------------------------|------------------------|


                                                
------------3-------3--|----3-----3--3---------|
------------1-------1--|----1-----1--1---------|
------------2-------2--|----2-----2--2---------|
--2---------2-------2--|----2-----2--2----0----|
--0----0----0----0--0--|----0--0--0--0----0----|
-----------------------|-----------------------|


                                                 
----------3--3----3--3--|----3-----3--3---------|
----------1--1----1--1--|----1-----1--1---------|
----------2--2----2--2--|----2-----2--2---------|
--0h-2----2--2----2--2--|----2-----2--2----0----|
--0--0----0--0----0--0--|----0--0--0--0----0----|
------------------------|-----------------------|


                                                 
------------0----------|------------------------|
------------0-------0--|-----0-------0----0--0--|
------------0-------0--|-----0-------0----0--0--|
------------2----2--2--|--2--2-------2----2--2--|
--2----2----2----2--2--|--2--2--2---------------|
--0----0---------0-----|--0-----0---------------|


                                                 
------------1----------|------------------------|
------------1----1--1--|-----0-------0----0--0--|
------------2----2--2--|-----0-------0----0--0--|
------------3----3--3--|--0--0-------0----0--0--|
------------3----3--3--|--2--2------------------|
--1----1---------------|--3-----3---------------|


                                               
-----------3-------3--|----3-----3--3---------|
-----------1-------1--|----1-----1--1---------|
-----------0-------0--|----0-----0--0---------|
-----------2----2--2--|----2-----2--2----0----|
--3--------3----3--3--|----3--3--3--3----0----|
----------------------|-----------------------|


                                                
-----------3-------3--|----3-------3----------||
-----------1-------1--|----1-------1----------||
-----------0-------0--|----0-------0---------*||
-----------2----2--2--|----2-------2----0----*||
--3--------3----3--3--|----3--3----3----3-----||
----------------------|-----------------------||


                                                  
-------------1----------|------------------------|
-------------1-------1--|-----1-------1----1--1--|
*------------2-------2--|-----2-------2----2--2--|
*------------3----3--3--|--3--3-------3----3--3--|
---3----3----3----3--3--|--3--3--3---------------|
---1----1----1----1-----|--1-----1---------------|


                                                 
------------0----------|------------------------|
------------0-------0--|-----0-------0----0--0--|
------------0-------0--|-----0-------0----0--0--|
------------2----2--2--|--2--2-------2----2--2--|
--2----2----2----2--2--|--2--2--2---------------|
--0----0---------0-----|--0-----0---------------|


                                                 
------------0-------0--|------------------------|
------------1-------1--|-----1-------1----1--1--|
------------2-------2--|-----2-------2----2--2--|
--2----2----2----2--2--|--2--2-------2----2--2--|
--0----0----0----0--0--|--0--0--0---------------|
-----------------0-----|--0-----0---------------|


                                                                
------------3----------|-------------------------||-----------||
------------0-------0--|-----0-------0----0--0---||-----------||
------------0-------0--|-----0-------0----0--0--*||-----------||
------------0----0--2--|--0--0-------0----0--0--*||--1--------||
--2----2----2----2--2--|--2--2--2----------------||-----1--1--||
--3----3---------3-----|--3-----3----------------||-----------||

Tap to rate this tab
 
# A B C D E F G H I J K L M N O P Q R S T U V W X Y Z