Song name
# A B C D E F G H I J K L M N O P Q R S T U V W X Y Z

Ben Harper - By My Side tab

this tab was created using Tab Studio 1.0     http://www.geocities.com/tabstudio/
Artist :Ben Harper
Song :By My Side
Album :Fight For Your Mind
Tuning :DGCFAd (down 1 step)
Tabbed By :Nick Dennis
E-mail Address: tabstudio@hotmail.com


verse
e:  -------3-3-3-0-0-0-2-2-2-3-3-3-|
B:  -------3-3-3-1-1-1-3-3-3-3-3-3-|
G:  -----0-0-0-0-0-0-0-2-2-2-0-0-0-|
D:  -0h2---0-0-0-2-2-2-0-0-0-0-0-0-|
A:  -------2-2-2-3-3-3-------2-2-2-|
E:  -------3-3-3-------------3-3-3-|

chorus
e:  -3-3-3-2-2-2-0-0-0-0-0-0|0-0-0-0-0-0-2-2-0-0-3-3-|
B:  -3-3-3-3-3-3-0-0-0-1-1-1|1-1-1-1-1-1-3-3-1-1-3-3-|
G:  -0-0-0-2-2-2-0-0-0-0-0-0|2-2-2-0-0-0-2-2-0-0-0-0-|
D:  -0-0-0-0-0-0-2-2-2-2-2-2|2-2-2-2-2-2-0-0-2-2-0-0-|
A:  -2-2-2-------2-2-2-3-3-3|0-0-0-3-3-3-----3-3-2-2-|
E:  -3-3-3-------0-0-0------|--------------------3-3-|
Tap to rate this tab
 
# A B C D E F G H I J K L M N O P Q R S T U V W X Y Z