Guitaretab - guitar tabs
Song name
# A B C D E F G H I J K L M N O P Q R S T U V W X Y Z

Ben Harper - Waiting For You tab

The solo is played on top of these chords: G - Em - G - Em - F - C - F - C

   G               Em             G              Em
E--------------------------------------5-3-2-3-------5/8-7-5-3-1-----|
B---3---1-0---0-----3---------------3-------------3------------------|
G--0--------2-----0---2-0---0----0--------------0--------------------|
D-------------------------4------------------------------------------|
A--------------------------------------------------------------------|
E--------------------------------------------------------------------|

[ Tab from: http://www.guitaretab.com/b/ben-harper/142828.html ]
   F               C                   F          C
E--0---0----0----0----0--0----0----0----01010101010------------------|
B---1----1----1--------1---1----1-------------------1-1p0--3-1-0-----|
G----0----0----0--------0---0----0-----------------------0-----------|
D--------------------------------------------------------------------|
A--------------------------------------------------------------------|
E--------------------------------------------------------------------|

Okey. Think that`s it. I think it`s quite accurate, but please comment if not.
Iskariot
Related for Waiting For You tab
Waiting For You chords by Ben Harper