Song name
# A B C D E F G H I J K L M N O P Q R S T U V W X Y Z

Ben Harper - Faded tab

Ben Harper-Faded-
-Standard tuning-
Taken from official Ben Harper website,
    http://www.virginrecords.com/ben_harper/

-Intro-
E-------------------|-----------------------|
B-------------------|-----------------------|
E-----9>10-0-9>10-0-|--10>12--(hold)--------|
E-----9>10-0-9>10-0-|--10>12--(hold)--------|
B-----9>10-0-9>10-0-|--10>12--(hold)--------|
E-----9>10-0-9>10-0-|--10>12--(hold)--------|


E-------------------|-----------------------|
B-------------------|-----------------------|
E-----9>10-0-9>10-0-|--10>12--(hold)--------|
E-----9>10-0-9>10-0-|--10>12--(hold)--------|
B-----9>10-0-9>10-0-|--10>12--(hold)--------|
E-----9>10-0-9>10-0-|--10>12--(hold)--------|



Verse: 
|------------------|--------------|------------------|--------------|
|------------------|--------------|------------------|--------------|
|-----9->10-9>10>9-|-10>12-(hold)-|-----9->10-9>10>9-|-10>12-(hold)-|
|-----9->10-9>10>9-|-10>12-(hold)-|-----9->10-9>10>9-|-10>12-(hold)-|
|-----9->10-9>10>9-|-10>12-(hold)-|-----9->10-9>10>9-|-10>12-(hold)-|
|-----9->10-9>10>9-|-10>12-(hold)-|-----9->10-9>10>9-|-10>12-(hold)-|

                         You    so    easily        amuse


|-----------------|-------------|---------------|-------------|
|-----------------|-------------|---------------|-------------|
|-----9--10--12---|-12>5-(hold)-|5---9---9---9--|-9>10-(hold)-|
|-----9--10--12---|-12>5-(hold)-|5---9---9---9--|-9>10-(hold)-|
|-----9--10--12---|-12>5-(hold)-|5---9---9---9--|-9>10-(hold)-|
|-----9--10--12---|-12>5-(hold)-|5---9---9---9--|-9>10-(hold)-|

                       Like a  pantomime        Such a silent crime


Chorus: 
E---------------------|----------------------||---------------------|
B---------------------|----------------------||---------------------|
E-12-12----12-12------|-12-12----12-12-------||-8--8-----8--8-------|
E-12-12----12-12------|-12-12----12-12-------||-8--8-----8--8-------|
B-12-12----12-12------|-12-12----12-12-------||-8--8-----8--8-------|
E-12-12----12-12------|-12-12----12-12-------||-8--8-----8--8-------|

  Fa  -      ded,                       (so) ||      Like   a



E---------------------|---------------------|---------------------|
B---------------------|---------------------|---------------------|
E-8--8-----8--8-------|-10-10----10-10------|-11-11----11-11------|
E-8--8-----8--8-------|-10-10----10-10------|-11-11----11-11------|
B-8--8-----8--8-------|-10-10----10-10------|-11-11----11-11------|
E-8--8-----8--8-------|-10-10----10-10------|-11-11----11-11------|

  me-mory  gone               There's  no       recollection
Tap to rate this tab
 
# A B C D E F G H I J K L M N O P Q R S T U V W X Y Z