Song name
# A B C D E F G H I J K L M N O P Q R S T U V W X Y Z

Ben Harper - Flake tab

I'm not going to bother trying to tab Ben's slide solo at the very end, but for the last
lines of the chorus before Ben breaks into crazy slide guitar jamming,Ben comes in and
a little fill over Jack's rhythym.  Ben actually plays Flake on his lap slide in open F 
(FCFACF), but here is the basic format of that fill in standard tuning for all of
who dont feel like learning lap slide guitar in the next 5 minutes.  At the bottom I 
it in open F for the slide.

e|-------0-1----------------3/5p3----------1-0----------------------------|
B|--1h3-------------------1-------------------3---------------------------|
G|-----------------------2------------------------------------------------|
D|------------------------------------------------------------------------|
A|------------------------------------------------------------------------|
E|------------------------------------------------------------------------|

e|-----------------------1-1h3-1-0-0h1---------3/5p3------1p0-0h1---------|
B|-----------------1-1h3--------------------1-----------------------------|
G|-----------------------------------------2------------------------------|
D|------------------------------------------------------------------------|
A|------------------------------------------------------------------------|
E|------------------------------------------------------------------------|

e|-------0-1----------------3/5p3----------1-0----------------------------|
B|--1h3-------------------1-------------------3---------------------------|
G|-----------------------2------------------------------------------------|
D|------------------------------------------------------------------------|
A|------------------------------------------------------------------------|
E|------------------------------------------------------------------------|

e|-----------------------1-3s5-3-1-0h1---------3/5p3------1p0-0h1---------|
B|-----------------1-1h3--------------------1-----------------------------|
G|-----------------------------------------2------------------------------|
D|------------------------------------------------------------------------|
A|------------------------------------------------------------------------|
E|------------------------------------------------------------------------|

Now, slide guitar version, in open F:

C|------0h4-4s5v-------------/4s2v----------------------------------------|
F|--0---------------------0----------------5-4s2v-------------------------|
A|-----------------------0------------------------------------------------|
F|------------------------------------------------------------------------|
C|------------------------------------------------------------------------|
F|------------------------------------------------------------------------|

e|-----------------------0-0h2-0-4-4s5v---------4/2v----------------------|
B|-----------------0-0h2--------------------0-------------5s4-4s5v--------|
G|-----------------------------------------0------------------------------|
D|------------------------------------------------------------------------|
A|------------------------------------------------------------------------|
E|------------------------------------------------------------------------|
REPEAT
Tap to rate this tab
 
# A B C D E F G H I J K L M N O P Q R S T U V W X Y Z