Song name
# A B C D E F G H I J K L M N O P Q R S T U V W X Y Z

Ben Harper - My Song tab

E-----0---------3--------------------------------------------|
B---1---1-----1--3-------------------------------------------|
G-2------2--2------1----------(2*----------------------------|
D------------------------------------------------------------|
A-0----------------------------------------------------------|
E-----------0------------------------------------------------|


E--0-----------0----------0--------------------------------------|
B----1-------3---3------3---3------------------------------------|
G----------2-------2--2-------2-0--------------------------------|
D----------------------------------------------------------------|
A--0------------------0------------------------------------------|
E----------------------------------------------------------------|

I HOPE  YOU LIKE IT AND IF YOU NOW SOMETHING BETRER, LD ME NOW !
GREETZ XIMI
Tap to rate this tab
# A B C D E F G H I J K L M N O P Q R S T U V W X Y Z