Song name
# A B C D E F G H I J K L M N O P Q R S T U V W X Y Z

Ben Harper - Jah Work Acoustic tab

Ben Harper - Jah Work (acoustic)

This version of Jah Work is an acoustic one in which Ben Harper plays alone for a TV 
(Juice TV). I tried to translate it as well as possible, but any comments and corrections 
welcome. Hope it helps to play this great song alone.

The structure is Intro - Verse 1 - Chorus - Repeat Intro - Verse 2 - Chorus - Repeat 
- Verse 3 - Chorus

Tuning = one step down

d = down
u = up

Intro
e------------0-----0-0-0-----0-0-------------0-----0-0-0-----0-0----------0-----0-0-0-----0-0--|
B------------1-----1-1-1-----1-1-------------1-----1-1-1-----1-1----------1-----1-1-1-----1-1--|
G------------2-----2-2-2-----2-2-------------2-----2-2-2-----2-2----------2-----2-2-2-----2-2--|
D------------2-----2-2-2-----2-2-------------2-----2-2-2-----2-2----------2-----2-2-2-----2-2--|
A-3-2-3-2-0--0--0--0-0-0--0--0-0--3-2-3-2-0--0--0--0-0-0--0--0-0-------0--0--0--0-0-0--0--0-0--|
E-----------------------------------------------------------------0--3-------------------------|
             d     u d u     d u             d     u d u    d u           d     u d u     d u

e------------0-----0-0-0-----0-0-------------0-----0-0-0-----0-0---------|
B------------1-----1-1-1-----1-1-------------1-----1-1-1-----1-1---------|
G------------2-----2-2-2-----2-2-------------2-----2-2-2-----2-2---------|
D------------2-----2-2-2-----2-2-------------2-----2-2-2-----2-2---------|
A-3-2-3-2-0--0--0--0-0-0--0--0-0--3-2-3-2-0--0--0--0-0-0--0--0-0-------0-|
E ----------------------------------------------------------------0--3---|
             d     u d u     d u             d     u d u     d u

Verse (x4)

e-0-----0-0-0-----1-1----------0-0------------3-3-------|
B-1-----1-1-1-----1-1----------1-1------------0-0-------|
G-2-----2-2-2-----2-2----------0-0------------0-0-------|
D-2-----2-2-2--3--3-3--3-2-3---2-2------------0-0-------|
A-0--0--0-0-0----------------3-3-3--3-2-3-2---2-2-----0-|
E ------------------------------------------3-3-3-0-3---|
  d     u d       d u          d u            d u

Chorus

e-0-----0-0-0-----0-0-----------1-----1-1-1-----1-1-----------3----3-3-3-----3-3-------|
B-1-----1-1-1-----1-1-----------3-----3-3-3-----3-3-----------0----0-0-0---------------|
G-2-----2-2-2-----2-2-----------2-----2-2-2-----2-2-----------0----0-0-0---------------|
D-2-----2-2-2-----2-2--------0--0--0--0-0-0--0--0-0-----------0----0-0-0---------------|
A-0--0--0-0-0--0--0-0--0-2-3-------------------------3-2-0----2----2-2-2-----2-2-----0-|
E----------------------------------------------------------3--3--3-3-3-3--3--3-3--0-3--|
  d     u d u     d u           d     u d u     d u           d    u d u     d u

e---0-----0-0-0-----0-0--------0-----0-0-0-----0-0---|
B---1-----1-1-1-----1-1--------1-----1-1-1-----1-1---|
G---2-----2-2-2-----2-2--------2-----2-2-2-----2-2---|
D---2-----2-2-2-----2-2--------2-----2-2-2-----2-2---|
A---0--0--0-0-0--0--0-0-----0--0--0--0-0-0--0--0-0---|
E-----------------------0-3--------------------------|
    d     u d u    d  u        d     u d u     d u
Tap to rate this tab
 
# A B C D E F G H I J K L M N O P Q R S T U V W X Y Z