Song name
# A B C D E F G H I J K L M N O P Q R S T U V W X Y Z

Ben Harper - Never Leave Lonely Alone tab

Help us improve GuitareTab! Take a short survey!
Never Leave Lonely Alone - Ben Harper

Intro/Verses

e|-------------------------------------------------------------------------------------------------|
B|-------------------------------------------------------------------------------------------------|
G|----4----4--------4----4--------4----4--------4----4--------4----4---------4----4--------7---7---|
D|----5----5--------5----5--------5----5--------5----5--------5----5---------5----5--------7---7---|
A|--7----7---7----6----6---6----5----5----5---4----4----4---3----3---3-----------------------------|
E|---------------------------------------------------------------------3----3--------3---5---5---5-|

Bridge

e|---------------------------------------------------------|
B|---------------------------------------------------------|
G|----4----4--------4----4--------4----4--------4----4-----|
D|----5----5--------5----5--------5----5--------5----5-----|
A|--3----3---3------------------2----2----2----------------|
E|----------------3----3----3-----------------0----0----0--|

Like an old man 
Sitting alone at a lunch counter 
Never leave lonely alone... 
Like a small town girl 
A big city devours 
Never leave lonely alone... 
Some of us laugh 
Even in our darkest hour 
Never leave lonely alone... 

Unspoken rules of solitude 
Wound without a trace 
A lifetime of dreams roll down your face 
All that we can't say 
Is all we need to hear 
When you close your eyes 
Does the world disappear 

There's something in everyone 
Only they know 
Never leave lonely alone... 
It moves in the hidden ways 
Of joy and sorrow 
Never leave lonely alone 
Never leave lonely alone...

Related for Never Leave Lonely Alone tab