Song name
# A B C D E F G H I J K L M N O P Q R S T U V W X Y Z

Ben Harper - Skin Thin tab

Song Title: Skin Thin
Artist: Ben Harper & Relentless 7
Tabbed By: Taylor Sansom

intro/verse
|-------------------------------|------------------|
|-------------------------------|------------------|
|-------------------------------|------------------|
|---------0-0h2--0-0h2--0-------|--------0---0-0h2-|
|----0h2------------------2-0---|---0h2----2-------|
|--3--------------------------3-|-0----------------|
          Now that you've grown up

|------------------------------|----------------|
|------------------------------|----------------|
|------------------------------|------------0---|
|--------0-0h2--0-0h2--0-------|--------0-----2-|
|---0h2------------------2-0---|---0h2----2-----|
|-3--------------------------3-|-0--------------|
  You can finally learn to be a child

......

chorus
|---0-------3--------0-----------------2--|
|---1-------0--------1-----------------3--|
|---0-------0--------2-----------------4--|
|---2--0h2--0--------2-----------------4--|
|--3--------2--0h2--0-----------------2---|
|----------3------------------------------|
   Skin    thin     I breathe out you breathe in


|---0-------3------------0h2-0h2--|
|---1-------0------------3--------|
|---0-------0------------2--------|
|---2--0h2--0-----------0---------|
|--3--------2--0h2----------------|
|----------3----------------------|
   But the days seem so long

......


|-----------0---0------|
|-----------1---1------|
|-----------2---0------|
|-----------2---2------| Back to intro/verse
|-----------0-2-3------|
|------------------3---|
Life's just skin   thin


Not 100% sure on the Bm in the chorus but it sounds good. Check the song for timing, a 
tricky but sounds great. Enjoy!
Tap to rate this tab
# A B C D E F G H I J K L M N O P Q R S T U V W X Y Z