Song name
# A B C D E F G H I J K L M N O P Q R S T U V W X Y Z

Ben Harper - Fly One Time tab

http://www.benharper.com/

artist: ben harper and relentless7
song: fly one time
tuning: standard
tabbed by: batesyy


/intro

|------------------------|
|------------------------|
|----5---5---5---5---5---|
|--3---3---3---3---3-----|
|------------------------|
|------------------------|


/verse

|-----------------------------------------------------------------|
|-----------------------------------------------------------------|
|---5---5---5---5---5---5---5---5----2---2---2---2---0---0---0---0| 
|-3---3---3---3---3---3---3---3----3---3---3---3---3---3---3---3--|
|-----------------------------------------------------------------|
|-----------------------------------------------------------------|

|--------------------------|
|--------------------------|
|---0-2----0-2----0-2-0----| repeat through 
|-3------3------3-------3--| chord progession
|--------------------------|
|--------------------------|

/chord progession

|-----------------------|
|-----------------------|
|-----------------------|
|-------10----7------3--|
|-3-----8-----5------1--|
|-1---------------------|

before bridge, play a b powerchord

/bridge

|-----------------------|
|-----------------------|
|-10----7-----5-----3---|
|-x-----x-----x-----x---|
|-8-----5-----3-----1---|
|-----------------------|

/solo

|--------------------------------------------------------------|
|--------------------------------------------------------------|
|-10~--12--14--12--10--9~--9--10--12--10--9--5--7--5--7--5--3-2|
|--------------------------------------------------------------|
|--------------------------------------------------------------|
|--------------------------------------------------------------|

|-----------------------------------------------------|
|-----------------------------------------------------|
|-10-12-14-12-10-12-14-12-9-10-12-10-7-5-3-2-7-5-3-2--|
|-----------------------------------------------------|
|-----------------------------------------------------|
|-----------------------------------------------------|


/outro

|------|
|------|
|-10---|
|-x----| repeat with 
|-8----| progression
|------|

/ending

|------------------------|
|------------------------|
|----5---5---5---5---5---|
|--3---3---3---3---3---3-|
|------------------------|
|------------------------|
Tap to rate this tab
# A B C D E F G H I J K L M N O P Q R S T U V W X Y Z