Song name
# A B C D E F G H I J K L M N O P Q R S T U V W X Y Z

Ben Harper - Waiting On An Angel tab

e|-------------------------------------------------------------------------|
B|-----1-1-----1-1----1-1-----0-0h1-------1-1-----1-1-----1-1--------------|
G|-----0-0-----0-0----0-0-----0-0---------0-0-----0-0-----0-0--------------|
D|-------------------------------------------------------------------------|
A|--3-------2-------0-------------------3-------2-------0------------------|
E|--------------------------3-----------------------------------3----------|


e|-----------------------------------|-----------------------------------|
B|-----1-1-----1-1----1-1-----0-0h1--|-----1-1-----1-1----1-1-----0-0h1--|
G|-----0-0-----0-0----0-0-----0-0----|-----0-0-----0-0----0-0-----0-0----|
D|-----------------------------------|-----------------------------------|
A|--3-------2-------0----------------|--3-------2-------0----------------|
E|--------------------------3--------|--------------------------3--------|
    waiting   on an  angel             one to   carry me home               
   	
e|-------------------------------------|
B|----1-1-----1-1----1-1-----0-0-------|
G|----0-0-----0-0----0-0-----0-0-------|
D|-------------------------------------|
A|--3-------2-------0------------------|
E|------------------------3------------|
    
   hope you come and see me soon


e|-------------------------------------------------------------------------|
B|-----1-1----0-0----1-1----1-1----1-1----0-0------------------------------|
G|-----2-2----0-0----2-2----0-0----2-2----0-0------------------------------|
D|-------------------------------------------------------------------------|
A|-----------------0-------------------------------------------------------|
E|--1-------3-------------0------1------3----------------------------------|
casue I dont wanna go alone        

e|-----------------------------------|-----------------------------------|
B|-----1-1-----1-1----1-1-----0-0h1--|-----1-1-----1-1----1-1-----0-0h1--|
G|-----0-0-----0-0----0-0-----0-0----|-----0-0-----0-0----0-0-----0-0----|
D|-----------------------------------|-----------------------------------|
A|--3-------2-------0----------------|--3-------2-------0----------------|
E|--------------------------3--------|--------------------------3--------|
    
i dont wanna go alone


e|-----------------------------------|-----------------------------------|
B|-----1-1-----1-1----1-1-----0-0h1--|-----1-1-----1-1----1-1-----0-0h1--|
G|-----0-0-----0-0----0-0-----0-0----|-----0-0-----0-0----0-0-----0-0----|
D|-----------------------------------|-----------------------------------|
A|--3-------2-------0----------------|--3-------2-------0----------------|
E|--------------------------3--------|--------------------------3--------|

   now angel wont you come by me         angel hear my plea

e|-------------------------------------|
B|----1-1-----1-1----1-1-----0-0-------|
G|----0-0-----0-0----0-0-----0-0-------|
D|-------------------------------------|
A|--3-------2-------0------------------|
E|------------------------3------------|

Take my hand, lift me up
 

e|-------------------------------------------------------------------------|
B|-----1-1----0-0----1-1----1-1----1-1----0-0------1-1----1-1--------------|
G|-----2-2----0-0----2-2----0-0----2-2----0-0------0-0----0-0--------------|
D|-------------------------------------------------------------------------|
A|-----------------0-----------------------------3-------------------------|
E|--1-------3-------------0------1------3---------------0------------------|
so that i can   fly with the so that i can  fly with the
 
e|-------------------------------------------------------------------------|
B|-----1-1----0-0----1-1----1-1----1-1----0-0------1-1----1-1--------------|
G|-----2-2----0-0----2-2----0-0----2-2----0-0------0-0----0-0--------------|
D|-------------------------------------------------------------------------|
A|-----------------0-----------------------------3-------------------------|
E|--1-------3-------------0------1------3---------------0------------------|
and im  waiting on an angle    and i know it wont be long

e|-------------------------------------------------------------------------|
B|-----1-1----0-0----1-1----1-1----1-1----0-0------1-1----1-1--------------|
G|-----2-2----0-0----2-2----0-0----2-2----0-0------0-0----0-0--------------|
D|-------------------------------------------------------------------------|
A|-----------------0-----------------------------3-------------------------|
E|--1-------3-------------0------1------3---------------0------------------|
to find myself a  resting place in my angles arms

e|-------------------------------------------------------------------------|
B|-----1-1----0-0----------------------------------------------------------|
G|-----2-2----0-0----------------------------------------------------------|
D|-------------------------------------------------------------------------|
A|-------------------------------------------------------------------------|
E|--1-------3--------------------------------------------------------------|
 in my angels arms

e|-----------------------------------|-----------------------------------|
B|-----1-1-----1-1----1-1-----0-0h1--|-----1-1-----1-1----1-1-----0-0h1--|
G|-----0-0-----0-0----0-0-----0-0----|-----0-0-----0-0----0-0-----0-0----|
D|-----------------------------------|-----------------------------------|
A|--3-------2-------0----------------|--3-------2-------0----------------|
E|--------------------------3--------| -------------------------3--------|


e|-----------------------------------|-----------------------------------|
B|-----1-1-----1-1----1-1-----0-0h1--|-----1-1-----1-1----1-1-----0-0h1--|
G|-----0-0-----0-0----0-0-----0-0----|-----0-0-----0-0----0-0-----0-0----|
D|-----------------------------------|-----------------------------------|
A|--3-------2-------0----------------|--3-------2-------0----------------|
E|--------------------------3--------| -------------------------3--------|
   So speak kind to a stranger          Cause you never know

e|-----------------------------------|
B|-----1-1-----1-1----1-1-----0-0----|
G|-----0-0-----0-0----0-0-----0-0----|
D|-----------------------------------|
A|--3-------2-------0----------------|
E|--------------------------3--------| 

It just might be angel





e|-------------------------------------------------------------------------|
B|-----1-1----0-0----1-1----1-1----1-1----0-0------1-1----1-1--------------|
G|-----2-2----0-0----2-2----0-0----2-2----0-0------0-0----0-0--------------|
D|-------------------------------------------------------------------------|
A|-----------------0-----------------------------3-------------------------|
E|--1-------3-------------0------1------3---------------0------------------|
come Nocking at your door  knockin at your door


e|-------------------------------------------------------------------------|
B|-----1-1----0-0----1-1----1-1----1-1----0-0------1-1----1-1--------------|
G|-----2-2----0-0----2-2----0-0----2-2----0-0------0-0----0-0--------------|
D|-------------------------------------------------------------------------|
A|-----------------0-----------------------------3-------------------------|
E|--1-------3-------------0------1------3---------------0------------------|
and im  waiting on an angle    and i know it wont be long 

e|-------------------------------------------------------------------------|
B|-----1-1----0-0----1-1----1-1----1-1----0-0------1-1----1-1--------------|
G|-----2-2----0-0----2-2----0-0----2-2----0-0------0-0----0-0--------------|
D|-------------------------------------------------------------------------|
A|-----------------0-----------------------------3-------------------------|
E|--1-------3-------------0------1------3---------------0------------------|
to find myself a  resting place in my angles arms

e|-------------------------------------------------------------------------|
B|-----1-1----0-0----------------------------------------------------------|
G|-----2-2----0-0----------------------------------------------------------|
D|-------------------------------------------------------------------------|
A|-------------------------------------------------------------------------|
E|--1-------3--------------------------------------------------------------|
 in my angels arms

e|-----------------------------------|-----------------------------------|
B|-----1-1-----1-1----1-1-----0-0h1--|-----1-1-----1-1----1-1-----0-0h1--|
G|-----0-0-----0-0----0-0-----0-0----|-----0-0-----0-0----0-0-----0-0----|
D|-----------------------------------|-----------------------------------|
A|--3-------2-------0----------------|--3-------2-------0----------------|
E|--------------------------3--------| -------------------------3--------|

e|-----------------------------------|-----------------------------------|
B|-----1-1-----1-1----1-1-----0-0h1--|-----1-1-----1-1----1-1-----0-0h1--|
G|-----0-0-----0-0----0-0-----0-0----|-----0-0-----0-0----0-0-----0-0----|
D|-----------------------------------|-----------------------------------|
A|--3-------2-------0----------------|--3-------2-------0----------------|
E|--------------------------3--------| -------------------------3--------|
    waiting   on an  angel             one to   carry me home               
   	
e|-------------------------------------|
B|----1-1-----1-1----1-1-----0-0-------|
G|----0-0-----0-0----0-0-----0-0-------|
D|-------------------------------------|
A|--3-------2-------0------------------|
E|------------------------3------------|
    
   hope you come and see me soon







e|-------------------------------------------------------------------------|
B|-----1-1----0-0----1-1----1-1----1-1----0-0------------------------------|
G|-----2-2----0-0----2-2----0-0----2-2----0-0------------------------------|
D|-------------------------------------------------------------------------|
A|-----------------0-------------------------------------------------------|
E|--1-------3-------------0------1------3----------------------------------|
casue I dont wanna go alone        

e|-------------------------------------------------------------------------|
B|-----1-1----0-0----1-1----1-1----1-1----0-0------------------------------|
G|-----2-2----0-0----2-2----0-0----2-2----0-0------------------------------|
D|-------------------------------------------------------------------------|
A|-----------------0-------------------------------------------------------|
E|--1-------3-------------0------1------3----------------------------------|
I donít wanna go alonee

outro: chorus riff repeating line
 i dont want to go alone
Tap to rate this tab
# A B C D E F G H I J K L M N O P Q R S T U V W X Y Z