Song name
# A B C D E F G H I J K L M N O P Q R S T U V W X Y Z

Ben Harper - Fly One Time tab

Fly One Time- Ben Harper and Relentless7
Album: White Lies for Dark Times
Tuning: Standard


e|---------------------------------------------------------------------------|
B|---------------------------------------------------------------------------|
G|---5-5-5-5-5-5-5-5-5-5-5-5-5-5-5-5-----------------------------------------|
D|--3-3-3-3-3-3-3-3-3-3-3-3-3-3-3-3------------------------------------------|Intro
A|---------------------------------------------------------------------------|
E|---------------------------------------------------------------------------|

e|---------------------------------------------------------------------------|
B|---------------------------------------------------------------------------|
G|---5-5-5-5-10-10-10-10-10-10-10-10-10-10-10-10-10-10-10-10-10-10-10-10-----|
D|--3-3-3-3-8--8--8--8--8--8--8--8--8--8--8--8--8--8--8--8--8--8--8--8-------|Verse 1
A|---------------------------------------------------------------------------|
E|---------------------------------------------------------------------------|

e|---------------------------------------------------------------------------|
B|---------------------------------------------------------------------------|
G|---5-5-5-5-5-5-10-10-10-10-10-10-10-10-10-10-10-10-10-10-10-10-10-10-10-10-|
D|--3-3-3-3-3-3-8--8--8--8--8--8--8--8--8--8--8--8--8--8--8--8--8--8--8--8---|
A|---------------------------------------------------------------------------|
E|---------------------------------------------------------------------------|

e|---------------------------------------------------------------------------|
B|---------------------------------------------------------------------------|
G|-----2----2----2---------2----2----2---------2----2----2-------------------|
D|--3-5--3-5--3-5-5-3---3-5--3-5--3-5-5-3---3-5--3-5--3-5-5-3----------------|Chorus 1
A|---------------------------------------------------------------------------|
E|---------------------------------------------------------------------------|

e|---------------------------------------------------------------------------|
B|---------------------------------------------------------------------------|
G|-----2----2----2---------2----2----2---------2----2----2-------------------|
D|--3-5--3-5--3-5-5-3---3-5--3-5--3-5-5-2---3-5--3-5--3-5-5-3----------------|
A|---------------------------------------------------------------------------|
E|---------------------------------------------------------------------------|

e|---------------------------------------------------------------------------|
B|---------------------------------------------------------------------------|
G|---5-5-5-5-5-5-5-5-5-5------10-10-10-10-10-10-10-10-10-10------------------|
D|--3-3-3-3-3-3-3-3-3-3-(x2)-8--8--8--8--8--8--8--8--8--8--(x2)--------------|Verse 2
A|---------------------------------------------------------------------------|
E|---------------------------------------------------------------------------|

e|---------------------------------------------------------------------------|
B|---------------------------------------------------------------------------|
G|---5-5-5-5-5-5-10-10-10-1--10-10-10-10-10-10-10-10-10-10-10-10-10-10-10-10-|
D|--3-3-3-3-3-3-8--8--8--8--8--8--8--8--8--8--8--8--8--8--8--8--8--8--8--8---|
A|---------------------------------------------------------------------------|
E|---------------------------------------------------------------------------|

e|---------------------------------------------------------------------------|
B|---------------------------------------------------------------------------|
G|-----2----2----2---------2----2----2---------2----2----2-------------------|
D|--3-5--3-5--3-5-5-3---3-5--3-5--3-5-5-3---3-5--3-5--3-5-5-3----------------|Chorus 2
A|---------------------------------------------------------------------------|
E|---------------------------------------------------------------------------|

e|---------------------------------------------------------------------------|
B|---------------------------------------------------------------------------|
G|-----2----2----2--------2----2----2--------2----2----2--------2----2----2--|
D|--3-5--3-5--3-5-5-3--3-5--3-5--3-5-5-3--3-5--3-5--3-5-5-3--3-5--3-5--3-5-5-3|
A|---------------------------------------------------------------------------|
E|---------------------------------------------------------------------------|

e|---------------------------------------------------------------------------|
B|---------------------------------------------------------------------------|
G|---------------------------------------------------------------------------|
D|--3-5-7-5-7-5-3-5-7-5-3-2-2-2-0-3-5-7---3333---5555---7777---5555---3333---|Bridge
A|---------------------------------------------------------------------------|
E|---------------------------------------------------------------------------|

e|---------------------------------------------------------------------------|
B|---------------------------------------------------------------------------|
G|---------------------------------------------------------------------------|
D|--5555---7777---5555---2222---3333---5555---3332---0000---2222---3333------|
A|---------------------------------------------------------------------------|
E|---------------------------------------------------------------------------|

e|---------------------------------------------------------------------------|
B|---------------------------------------------------------------------------|
G|---------------------------------------------------------------------------|
D|--2222---0000---2222---3333------------------------------------------------|
A|---------------------------------------------------------------------------|
E|---------------------------------------------------------------------------|

e|---------------------------------------------------------------------------|
B|---------------------------------------------------------------------------|
G|-----2----2----2---------2----2----2---------2----2----2-------------------|
D|--3-5--3-5--3-5-5-3---3-5--3-5--3-5-5-3---3-5--3-5--3-5-5-3----------------|Chorus 3
A|---------------------------------------------------------------------------|
E|---------------------------------------------------------------------------|

e|---------------------------------------------------------------------------|
B|---------------------------------------------------------------------------|
G|-----2----2----2---------2----2----2---------2----2----2-------------------|
D|--3-5--3-5--3-5-5-3---3-5--3-5--3-5-5-3---3-5--3-5--3-5-5-3----------------|
A|---------------------------------------------------------------------------|
E|---------------------------------------------------------------------------|

e|---------------------------------------------------------------------------|
B|---------------------------------------------------------------------------|
G|---5-5-5-5-5-5-5-5-5-5-5-5-5-5-5-5-5-5-5-5-5-5-5-5-5-5-5-5-5-5-5-5------5--|
D|--3-3-3-3-3-3-3-3-3-3-3-3-3-3-3-3-3-3-3-3-3-3-3-3-3-3-3-3-3-3-3-3-------3--|Outro
A|---------------------------------------------------------------------------|
E|---------------------------------------------------------------------------|
Tap to rate this tab
# A B C D E F G H I J K L M N O P Q R S T U V W X Y Z