Song name
# A B C D E F G H I J K L M N O P Q R S T U V W X Y Z

Ben Harper - Excuse Me Mr tab

E----------------------------------------------------------------------|
B----------------------------------------------------------------------|
G-----3---2---0-----------------------0--------------------------------|
D----5-------------3---3h5--------0------0-----------------------------|
A---5------------------------------------------3-----3---3---3/1-------|
E-------------------------------------------------1----------------1h3-|

E------------------------------------------------------------------------|
B------------------------------------------------------------------------|
G-----3---2---0-------------3--------------------------------------------|
D----5-------------3---3h5--------0---0---0------------------------------|
A---5------------------------------------------3---3---3---3---3/1-------|
E--------------------------------------------------------------------1h3-|


E---------------------------|
B---------------------------|
G-------3---2---0-----------|
D-----5-------------3---3h5-|
A---5-----------------------|
E---------------------------|
Tap to rate this tab
 
# A B C D E F G H I J K L M N O P Q R S T U V W X Y Z