Song name
# A B C D E F G H I J K L M N O P Q R S T U V W X Y Z

Ben Harper - Fight Outta You tab

Standart tunning : EADGBe
Only two different parts in this song.

h: Hammer on

 - Verse -

A/Gm

e|-----------------------------------2-----2---2-2-----|
B|---2-2-2-2----2--2-2-2-2-----------2-----2-x-2-2-----|
G|---4-4-4-2---2h4-4-4-4---4-2-------2-----2-x-2-2-----|
D|---2-2-2-2----2--2-2-2-------4-----4-----4-x-4-4-----|
A|-0-----------------------------4---4-----4-x-4-4-----|
E|---------------------------------2-2-0h2-2---2-2-0h2-|


 - Chorus -

D/B/Gm (/E)

First, second and third time :
e|-----------------2-2-2-2-2-2-2-2-|
B|-----------------2-2-2-2-2-2-2-2-|
G|-7-7-7-7-4-4-4-4-2-2-2-2-2-2-2-2-|
D|-7-7-7-7-4-4-4-4-4-4-4-4-4-4-4-4-|
A|-5-5-5-5-2-2-2-2-4-4-4-4-4-4-4-4-|
E|-----------------2-2-2-2-2-2-2-2-|

Fourth time :
e|-----------------2-2-2-2-0---|
B|-----------------2-2-2-2-0---|
G|-7-7-7-7-4-4-4-4-2-2-2-2-1---|
D|-7-7-7-7-4-4-4-4-4-4-4-4-2---|
A|-5-5-5-5-2-2-2-2-4-4-4-4-2---|
E|-----------------2-2-2-2-0---|



The rythm on the chorus may not be exactly right. Just play it as you feel, it's not 
easy to type a good rythm here.
At least, all the chords played in this song are here, and right.

This video may help : http://www.youtube.com/watch?v=_7PGKnNyH18
Actually it helped me to write this tab.
Tap to rate this tab
# A B C D E F G H I J K L M N O P Q R S T U V W X Y Z