Ben Harper - Number 3 tab

---------------------------------------------------------------------
                #3 / Number Three (live) - Ben Harper
---------------------------------------------------------------------

Albums: The will to live (original) / Live from Mars (live)
Tabbed by: Joel C.
Email: jcboxfr at yahoo dot fr

Live version (transcribed here):
Tuning: Standard EADGBe
Capo: 3rd fret

For the original version the tuning is 1/2 step down, no capo.

Structure: P1 P1 P2 P3 P1 P2 P3p P2p P2 P4


P1:

e|-------0---------|-------0---------|---0-------------|-0---------------|
B|---1-------------|-----------------|---------3-------|-----------1^3---|
G|-----2-------0^2-|---2-----------2-|-------0-------0-|-0-------------0-|
D|-3-------3-------|-----2-------2---|-----0-------0---|-----2-----------|
A|-----------------|-0-------0-------|-0-------2-------|-3-------3-------|
E|-----------------|-----------------|-----------------|-----------------|


e|-0-------------0-|-----------------|-----------0-----|-----------------|
B|---------3-------|-3^1-------------|-------3---------|-3---------------|
G|-------0---------|-------2---------|---2-----------0-|-----------------|
D|-----2-------0---|-----2-------0---|-----0-------0---|-----0-------0^2-|
A|-3-------2-------|-0-------0-------|-----------------|-----------------|
E|-----------------|-----------------|-2-------2-------|-3-------3-------|


P2:

e|-------0---------|-------0---------|-------0-------0-|-----------------|
B|---1-------------|-----------------|-1^3-----1^3-----|---------1^3---1-|
G|-----2-------2^0-|-----0-------0^2-|-----2-------2---|-----2-2-----2---|
D|-3-------3-------|-0^2-----2-------|-0-------0-------|-0-------0-------|
A|-----------------|-----------------|-----------------|-----------------|
E|-----------------|-----------------|-----------------|-----------------|


e|-------0---------|-------0---------|-------0-------0-|-----------------|
B|-----------1-----|-----------------|-1^3-----1^3-----|---------1^3---1-|
G|-----2-------2^0-|-----0-------0^2-|-----2-------2---|-----2-2-----2---|
D|-0^3-----3-------|-0^2-----2-------|-0-------0-------|-0-------0-------|
A|-----------------|-----------------|-----------------|-----------------|
E|-----------------|-----------------|-----------------|-----------------|


P2p: same as P2 except 4th measure:

e|-------0---3^0---|
B|---------------1-|
G|-----2-------2---|
D|-0-------0-------|
A|-----------------|
E|-----------------|


P3:

e|-------0---------|-------0---------|---0-------------|-0---------------|
B|-----------------|-----------------|---------3-------|-----------1^3---|
G|-----2-------0^2-|---2-----------2-|-------0-------0-|-0-------------0-|
D|-0^3-----3-------|-----2-------2---|-----0-------0---|-----2-----------|
A|-----------------|-0-------0-------|-0-------2-------|-3-------3-------|
E|-----------------|-----------------|-----------------|-----------------|


e|-0-------------0-|-----------------|-----------0-----|-----------------|
B|---------3-------|-3^1-------------|-------3---------|-3---------------|
G|-------0---------|-------2---------|---2-----------0-|-----------------|
D|-----2-------0---|-----2-------0---|-----0-------0---|-----0-------0^2-|
A|-3-------2-------|-0-------0-------|-----------------|-----------------|
E|-----------------|-----------------|-2-------2-------|-3-------3-------|


P3p: same as P3 except 4th measure:

e|-0---------3^1-0-|
B|-----------------|
G|-0---------------|
D|-----2-----------|
A|-3-------3-------|
E|-----------------|


P4:

e|-------0-------0-|-------0-------3-|-----------------|
B|-----------1-----|---1^3---3^1-----|-1---------------|
G|-----2-------2---|-----2-------2---|-2---------------|
D|-0^3-----3-------|-3-------3-------|-3---------------|
A|-----------------|-----------------|-----------------|
E|-----------------|-----------------|-----------------|
Tap to rate this tab
 
# A B C D E F G H I J K L M N O P Q R S T U V W X Y Z