Ben Harper - Sexual Healing tab

-----------------------------------------------------------------
SEXUAL HEALING - Ben Harper
-----------------------------------------------------------------
Tabbed by: Austin Hedley-Richards
Email: austinhedleyrichards@msn.com ... email me requested tabs.

Tuning: Half step down (D#,g#,c#,f#,a#,d#)

Hey Guys, i listened to all the other tabs and none of them sounded right, so I thought 
I would tab the song myself. This is my first Tab so sorry if i've done something wrong :)

Inrto/Verse
      D U   D D U D U D U   D U  D
|-----2-2-/-4-4-4-4-4-4-4-\-x-x--7------------------------------|
|-----2-2-/-4-4-4-4-4-4-4-\-x-x--7------------------------------|
|-----3-3-/-4-4-4-4-4-4-4-\-1-1--8------------------------------|
|-----4-4-/-6-6-6-6-6-6-6-\-2-2--9------------------------------|  x11
|-----4-4-/-6-6-6-6-6-6-6-\-2-2--9-----2--4--6--4--2------------|
|---2-2-2-/-4-4-4-4-4-4-4-\-0-0--7--4-----------------4---------|

Bridge
  D U   D D U D U D U
|-2-2-/-4-4-4-4-4-4-4--------|
|-2-2-/-4-4-4-4-4-4-4--------|
|-3-3-/-4-4-4-4-4-4-4--------|
|-4-4-/-6-6-6-6-6-6-6--------|   x1 Continues Straight into Chorus
|-4-4-/-6-6-6-6-6-6-6-4-6-7-9|
|-2-2-/-4-4-4-4-4-4-4--------|

Chorus
    D D U D U D   D D U D U D  D  D  U  D  U  D
|---7-7-7-7-7-7/--8-8-8-8-8-8/-9--9--9--9--9--9---------|
|---7-7-7-7-7-7/--8-8-8-8-8-8/-9--9--9--9--9--9---------|
|---8-8-8-8-8-8/--8-8-8-8-8-8/-9--9--9--9--9--9---------|
|---9-9-9-9-9-9/--8-8-8-8-8-8/-9--9--9--9--9--9---------|  x4
|---9-9-9-9-9-9/--6-6-6-6-6-6/-10-10-10-10-10-10-4-6-7-9|
|-7-7-7-7-7-7-7/--x-x-x-x-x-x/-x--x--x--x--x--x---------|

Verse x11

Chorus x4

Pause**

Verse carrys on and turns into clapping.

| /  slide up
| \  slide down
| h  hammer-on
| p  pull-off
| ~  vibrato
| +  harmonic
| x  Mute note
Tap to rate this tab
 
# A B C D E F G H I J K L M N O P Q R S T U V W X Y Z