Song name
# A B C D E F G H I J K L M N O P Q R S T U V W X Y Z

Ben Harper - Number 3 tab

Song: #3
Artist: Ben Harper
Standard Tuning
Tabbed by Bhawkins

Not based on any recording in particular, just the general song.

Video of this tab being played:
http://www.youtube.com/watch?v=gyIp2ysqQpw


Play Twice:
    F7                   Am7                Dsus2
E|-----------0-------------------0------------------0----------0---------------------------|
B|-----1------------------------------------0h3--------0h3--------3--------0h3-----0-------|
G|--------2---------2p0-------0--------0h2-------2----------2--------2----------2----------|
D|--3-----------3--------0h2--------2-------0----------0----------0-----0------------------|
A|-----------------------------------------------------------------------------------------|
E|-----------------------------------------------------------------------------------------|



Play Twice:
    F7                  Am                      G/B   C                         G
E|-----------0-------------------0-----------0--------0----------------0-------------------|
B|-----1----------------------------------------3-----1--------1h3--------------3----------|
G|--------2--------0h2-----2--------------2-----------0-------------0--------0--------0----|
D|--3-----------3-------------2--------2-----------0-----2----------------2--------0-------|
A|----------------------0-----------0-----0-----2-----3-----3----------3--------2----------|
E|-----------------------------------------------------------------------------------------|

                  Dsus2add9         G
E|-------------------------------0----------------------|
B|--3p1--------------------3--------3-------------------|
G|-------2-----------2--------2-------------------------|
D|-------------0--------0--------------0----0-----------|
A|--0-------0-------------------------------------------|
E|----------------2-----------------3----3--------------|


Play Twice:
    F7                   Am7                Dsus2
E|-----------0-------------------0------------------0----------0---------------------------|
B|-----1------------------------------------0h3--------0h3--------3--------0h3-----0-------|
G|--------2---------2p0-------0--------0h2-------2----------2--------2----------2----------|
D|--3-----------3--------0h2--------2-------0----------0----------0-----0------------------|
A|-----------------------------------------------------------------------------------------|
E|-----------------------------------------------------------------------------------------|


Play Twice:
    F7                  Am                      G/B   C                         G
E|-----------0-------------------0-----------0--------0----------------0-------------------|
B|-----1----------------------------------------3-----1--------1h3--------------3----------|
G|--------2--------0h2-----2--------------2-----------0-------------0--------0--------0----|
D|--3-----------3-------------2--------2-----------0-----2----------------2--------0-------|
A|----------------------0-----------0-----0-----2-----3-----3----------3--------2----------|
E|-----------------------------------------------------------------------------------------|

                  Dsus2add9         G
E|-------------------------------0----------------------|
B|--3p1--------------------3--------3-------------------|
G|-------2-----------2--------2-------------------------|
D|-------------0--------0--------------0----0-----------|
A|--0-------0-------------------------------------------|
E|----------------2-----------------3----3--------------|

Play Twice:
    F7                   Am7                Dsus2
E|-----------0-------------------0------------------0----------0---------------------------|
B|-----1------------------------------------0h3--------0h3--------3--------0h3-----0-------|
G|--------2---------2p0-------0--------0h2-------2----------2--------2----------2----------|
D|--3-----------3--------0h2--------2-------0----------0----------0-----0------------------|
A|-----------------------------------------------------------------------------------------|
E|-----------------------------------------------------------------------------------------|


Outro:
     F7
E|------------0-----------0-----------0-------------3----|
B|------1-----------1-----------1-----------1-------1----|
G|---------2-----------2-----------2-----------2----2----|
D|---3-----------3-----------3-----------3----------3----|
A|-------------------------------------------------------|
E|-------------------------------------------------------|


[Optional Picking Variation on C Chord]:
    C
E|--0--------3p1p0----------|
B|--1---------------1-------|
G|--0-----------------------|
D|-----2---------------2----|
A|--3-----3---------3-------|
E|--------------------------|
Tap to rate this tab
# A B C D E F G H I J K L M N O P Q R S T U V W X Y Z