Song name
# A B C D E F G H I J K L M N O P Q R S T U V W X Y Z

Ben Harper - Burn One Down tab

I just figured this out and if you listen to the song it's perfect. There's another into 
on here that is too high to be right, even though the person that made it was "100% 
sure" it was.

I haven't figured out the whole thing yet but I will definitely get back to it..this is 
just after one listen through.

e:---1-------111---------------------|
B:---1-------111---------------------|
D:---2-------222---------------------|
G:---3-------333---------------------|
A:---3-------333-------0---1-0---3---|
E:-1-1-----1-111---1-3---1-----3-----|  x2


e:---1-------111---------------------|
B:---1-------111---------------------|
D:---2-------222---------------------|
G:---3-------333---------------------|
A:---3-------333-------0---1--0------|
E:-1-1-----1-111---1-3---1-------3---|  x1


e:---1-------111---------------------|
B:---1-------111---------------------|
D:---2-------222---------------------|
G:---3-------333---------------------|
A:---3-------333-------0---1-0---3---|
E:-1-1-----1-111---1-3---1-----3-----|  x1


e:---1-------111---------------------|
B:---1-------111---------------------|
D:---2-------222---------------------|
G:---3-------333---------------------|
A:---3-------333-------0---1--0------|
E:-1-1-----1-111---1-3---1-------3---|  x1


Then he starts singing. I'll finish this later. Leave some feedback!
Tap to rate this tab
# A B C D E F G H I J K L M N O P Q R S T U V W X Y Z