Song name
# A B C D E F G H I J K L M N O P Q R S T U V W X Y Z

Ben Harper - Like A King tab

ben harper 
like a king
by neil boniface
this is a great song time someone tabbed it!!

INTRO
E-----------------------------------------------
B-----------------------------------------------
G-----------------------------------------------
D------0---------0-------0---------0------------
A----0---0-----0---0---0---0-----0---0----------
E--0-------0-0-------0-------0-0-------0--------
VERSES
E-----------------------------------------------
B-----------------------------------------------
G-----------------------------------------------
D-3/5-0-3-5-7-0-3/5-----------------------------
A-------------------0-3h5-----------------------
E-3/5-0-3-5-7-0-3/5-----------------------------
CHOURS
E-----------------------------------------------
B-----------------------------------------------
G-----------------------------------------------
D-0-2-3-3-2-3-3-2-0-----------------------------
A-0-2-3-3-2-3-3-2-0-----------------------------
E-----------------------------------------------
SOLO
E-0-0-3/5-0-3/5/7-0-3/5----0--0-----------------
B-0-0-3/5-0-3/5/7-0-3/5--5--5-------------------
G-----------------------------------------------
D-----------------------------------------------
A-----------------------------------------------
E-----------------------------------------------

E-0-0-3/5-0-3/5/7-0-3/5----0--0-----------------
B-0-0-3/5-0-3/5/7-0-3/5--0--0-------------------
G-----------------------------------------------
D-----------------------------------------------
A-----------------------------------------------
E-----------------------------------------------

E-0-2-3-3-2-3-3-2-0-----------------------------
B-0-2-3-3-2-3-3-2-0-----------------------------
G-----------------------------------------------
D-----------------------------------------------
A-----------------------------------------------
E-----------------------------------------------

THATS IT COOL SONG PLEASE RATE THANK YOU
PEACE AND LOVE
Tap to rate this tab
 
# A B C D E F G H I J K L M N O P Q R S T U V W X Y Z